HOME FORUM

Login






Register
Search
List of users


PLEASE NOTE THAT THIS FORUM IS TAKEN FROM PREVIOUS VERSION OF QUEEN SONGS SITE.
Path: Queen Songs - Forum - Tabs & Chords: Dreamers BallBookmark and Share

Forum

--- Only registered users can post a message ---pages 1
Daniel: Dreamers Ball10 Apr 2005 20:38


I've been working lot of time on this song tab,  the one made by PD is almost completely wrong in the parts of the electric guitar .  I hope someone please correct just the electric guitar parts
i made the intro but nothing more because i don't have such a good ear to hear those background guitars

Center                                                                  
------------------------------|--------------------------------|
-------9b~------6----8b~------|--7-----------------------------|
--9---------------------------|-------7------------------------|
------------------------------|----------9----7--9b---9b-------|
------------------------------|--------------------------------|
------------------------------|--------------------------------|


                                                                           
---------------------------------|---------------------------|
---------------------------------|---------------------------|
--6----7--8----9-----------------|------9~-------------------|
------------------9r-----7----7--|---------------------------|
---------------------------------|---------------------------|
---------------------------------|---------------------------|

Left
------------------------------|--------------------------------|
------------------------------|--------------------------------|
-------6~------------4--------|--------------------------------|
-s7------------s6-------------|--7----4------------------------|
------------------------------|----------5----5--6----6--------|
------------------------------|--------------------------------|


                                                                             
---------------------------------|----------------------------|
---------------------------------|----------------------------|
---------------------------------|----------------------------|
----------7----7-----------------|--------------6------4/-----|
--7----7----------6r-----5----4--|----------------------------|
---------------------------------|----------------------------|

Right


------------------------------|--------------------------------|
------------------------------|--------------------------------|
--6----9~-------6----9b-------|--7-----------------------------|
------------------------------|-------7--5----4--5b---5~-------|
------------------------------|--------------------------------|
------------------------------|--------------------------------|


                                                                           
---------------------------------|---------------------------|
---------------------------------|---------------------------|
-------4--5----6-----------------|----------5~---------------|
--7---------------4r-----2----2--|---------------------------|
---------------------------------|---------------------------|
---------------------------------|---------------------------|

1.PD 12 Apr 2005 18:47

Ouch!!!

I dont know what happened to me on the day I transcribed this, but the fault was not in my ears but somewhere halfway toward my hands... I'm ashamed to see what was out for years with my PD signature under it. Here I try to correct myselfat least pitch-wise.
Just the intro, I had only 10 minutes for it.
I guess the rest of the tab is bad too in spite it is not very hard to transcribe...


left
|--------------------------------------------------------------------------|
|--------------------------------------------------------------------------|
|----b6v--------4----------------------------------------------------------|
|-7----------6-------7--4---------------------7--7---------------6---4-3-2-|
|-------------------------5--5-b6--b6v---7--7------7r6--5--4---------------|
|--------------------------------------------------------------------------|
|middle
|---------------------------------------------------------------------------|
|----9b10v----6--8b9v---7---------------------------------------------------|
|-9------------------------7--------------------6--7-8--9--------------9----|
|----------------------------9--7-9b10--b10v--------------10r9--7--7--------|
|---------------------------------------------------------------------------|
|---------------------------------------------------------------------------|
|right
|---------------------------------------------------------------------------|
|---------------------------------------------------------------------------|
|-6--9----6--9b10----7------------------------------------------------------|
|-----------------------7--------------------7--9-10--11---------------10---|
|-------------------------10--9-10b12--b12v--------------10_r9-7--7---------|
|---------------------------------------------------------------------------|

2.woody 12 Apr 2005 23:10
At leats you got the acoustic guitar right, PD. I love this song, and it is very much worth learning to all budding guitarists... Brilliant
3.woody 12 Apr 2005 23:19
Actually, thinking about it, I could do some of the arrangements (with more effort than my half arse attempts at the Proph's and Father to son) I just really need to know if the electric you are transcribing is in normal tuning or down a semi-tone.
4.PD 16 Apr 2005 12:06

"I just really need to know if the electric you are transcribing is in normal tuning or down a semi-tone."

Prop: it's drop-D. F2S: prpbbaly in normal tuning.
I have the intro figure arranged for guitar:

-5----...-5---...-5---...-5----
--5---...--5--...--5--...--5---
---7--...---5-...---7-...---6--
----7-...----7...----8...----7-
-------------------------------
-------------------------------
or something like that...

5.woody 16 Apr 2005 14:27
I mainly meant the guitar in Dreamer's Ball!!! The intro figure for father to son is in the last reply for Father to son in the forum, (couple of days ago), it's more along the lines of the intro's (overdrive guitar's) chords, with added D. I'm not really sure. I've given up on the Proph's song and Father to son, I'm mainly working on some other minor guitar parts, seeing what I can come up with.

Do you need help...? (for Dreamer's)
6.Daniel 20 Apr 2005 23:57
i think its important a transcription of the hole parts of the electric guitars
7.PD 08 May 2005 18:42
I am going to correct it as soon as I have time. Be patient.
8.Daniel 09 May 2005 04:57
0k ,  thank You very much,  please don't forget
pages 1