HOME FORUM

Login






Register
Search
List of users


PLEASE NOTE THAT THIS FORUM IS TAKEN FROM PREVIOUS VERSION OF QUEEN SONGS SITE.
Path: Queen Songs - Forum - Tabs & Chords: The Fairy Fellers Masterstroke TABBookmark and Share

Forum

--- Only registered users can post a message ---pages 1
HenrikBjorklund: The Fairy Fellers Masterstroke TAB01 Mar 2005 19:17

                      The Fairy Fellers Masterstroke

 This is the rhytm guitar
 I think its fairly accurate

|--------------------------------------------------------------------------|
|-3------3-----------------------------------------------------------------|
|-2------2---------------------------------5-5-2----------5-5-2---7---2----|
|-0--5-4----5-4----------5-5-2-------------5-5-2----------5-5-2---7---2----|
|---------------3-2------3-2-0-------------3-2-0--0--0-2--3-2-0---5---0----|
|---------------------------------------------------3----------------------|

|-----------------------------1------------------------------------------------|
|-----------------------------3------------------------------------------------|
|--------------------------2--2--------------------5---------------5-5-2--7--2-|
|-------2--3---------------2--0--------------------5-5-2-----------5-5-2--7--2-|
|-5-3-5------3------8-7-5--0-----------------------3-2-0--0---0-2--3-2-0--5--0-|
|--------------1------------------1-1-1-1-3-3-3-------------3------------------|

|-----------------------------------1--------------------|
|-----------------------------------3--------------------|
|-----------------------------7--2--2--------------------|
|-------2--3-3----3-3----3-2--7--2--0--------------------|
|-5-3-5-----------------------5--0-----------------------|
|--------------1------1-----------------1-1-1-1-3-3-3----|

|-------------------------------------------------------------------------------|
|-------------------------------------------------------------------------------|
|---2--------4times----3--------3times--------------1-3----7-----------2--------|
|-----3-2----------------4-3------------------1-3-4----------9-7-4-------4-2----|
|---------3------------------4------------3-4-----------5--------------------4--|
|-5------------------6------------------6---------------------------5-----------|

|-------------------------------------------------------------------------------------|
|-------------------------------------------------------------------------------------|
|----7-----------2----------7-----------2----------7---------------0-2-4-5-4---4---4--|
|------9-7-4-------4-2--------9-7-4-------4-2--------9-7-4-----2-3--------------------|
|-5--------------------4--5-------------------4--------------3---------------22--22-2-|
|-------------5-----------------------5----------5------------------------------------|

|----------------------------------------------------------------|
|----------------------------------------------------------------|
|-------------------9-7-5----------------------------------------|
|-----------0-1-2---9-7-5-----------------2---2----2---0-2-4-5---|
|-2-1-2-3-4---------7-5-3--0-0-0-0-2-2-2--2-----2----2-----------|
|-----------------------------------------0----------------------|

|--------------------------------------------------------------------------------------|
|--------------------------------------------------------------------------------------|
|-5-5-2-----------5-5-2---7---2------------------------3-2-0-------7-------------------|
|-5-5-2-----------5-5-2---7---2---------2--3-3-----3-3-------3-----7-------------------|
|-3-2-0--0---0-2--3-2-0---5---0---5-3-5------------------------0---5-------------------|
|----------3-----------------------------------0-0---------------------1-1-1-1-3-3-3---|

|----------------------------------1-----|
|---------------------3------------1-----|
|-------------------2---2----------2-----|
|-----------------0-------5--3-3---3-----|
|-3-2-0---3-2-0--------------------3-----|
|----------------------------------1-----|

 Henrik


 guitar-solo by PD. february 12, `98
|-5h6p5p3-5p3---------------------5h6p5p3-5---|
|-------------6p5-6p5h6p5h6p5-3---------------|
|---------------------------------------------|
|---------------------------------------------|
|---------------------------------------------|
|---------------------------------------------|


|-5h6p5p3-5p3---------------------------------|
|-------------6p5-6p5h6p5h6p5-3---5h6p5p3-5---|
|---------------------------------------------|
|---------------------------------------------|
|---------------------------------------------|
|---------------------------------------------|

|-5h6p5p3-5-----------------------------------|
|-------------6p5-6p5h6p5h6p5-3---2h3p2---2---|
|---------------------------------------4-----|
|---------------------------------------------|
|---------------------------------------------|
|---------------------------------------------|

|-----------------------------------------------------------------|
|-3h4p3---3---3h4p3---3---3h4p3---1h3p1---1---1h3p1---1---1h3p1---|
|-------5-----------5-------------------3-----------3-------------|
|-----------------------------------------------------------------|
|-----------------------------------------------------------------|
|-----------------------------------------------------------------|
|
|-5h6p5p3-5---5h6p5p3-5---5h6p5-----------------------------------|
|---------------------------------5h6p5p3-5---5h6p5p3-5---5h6p5---|
|-----------------------------------------------------------------|
|-----------------------------------------------------------------|
|-----------------------------------------------------------------|
|-----------------------------------------------------------------|

|--------------------------------|
|-0h1p0---0---0h4p0hphphp-5b7v---|
|-------2------------------------|
|--------------------------------|
|--------------------------------|
|--------------------------------|
|
|----------------------------------|
|-4h5p4p2-4---4h7p4hphphp-10b12v---|
|----------------------------------|
|----------------------------------|
|----------------------------------|
|----------------------------------|

pages 1