HOME FORUM

Login






Register
Search
List of users


PLEASE NOTE THAT THIS FORUM IS TAKEN FROM PREVIOUS VERSION OF QUEEN SONGS SITE.
Path: Queen Songs - Forum - Tabs & Chords: Put Out The Fire TabBookmark and Share

Forum

--- Only registered users can post a message ---pages 1
HenrikBjörklund: Put Out The Fire Tab21 Jan 2005 18:18

                 Put Out The Fire
                                         Written by Brian May
 Intro
|--2---5---2------------|
|--3---3---3------------|
|--2---2---2------------|
|--0---0---0------------|
|-----------------------|
|-----------------------|

 verse figure
|--2--------------------|
|--3-----2--22--2h32----|
|--2-----2--22--2--2----|
|--0-----2--22--2h42----|
|----3b--0--00--0--0----|
|-----------------------|
 
 Pre-Chorus           
|----2-----------3------|
|----3--2---9\---3------|
|-1--2--2---9\---0------|
|-2--0--2---9\---0------|
|-2-----0---7\---2------|
|-0--------------3------|
 
 Chorus
|--------------------------------3---2---|
|--------------2---------2-------3---3---|
|--7-7--9-9-9--2---7--9--2-------0---2---|
|--7-7--9-9-9--2---7--9--2-------0---0---|
|--5-5--7-7-7--0---5--7--0-...---2-------|
|--------------------------------3-------|
 
 Solo (same as verse)

 Bridge
|-----2---------2---------2-------3------|
|-----3--2------3--2------3--2----3------|
|--1--2--2---1--2--2---1--2--2----0------|
|--2--0--2---2--0--2---2--0--2----0------|
|--2-----0---2-----0---2-----0----2------|
|--0---------0---------0----------3------|

 Chorus

 Outro (same as verse)

 Henrik Björklund

pages 1