HOME FORUM

Login






Register
Search
List of users


PLEASE NOTE THAT THIS FORUM IS TAKEN FROM PREVIOUS VERSION OF QUEEN SONGS SITE.
Path: Queen Songs - Forum - Tabs & Chords: Lily of the valleyBookmark and Share

Forum

--- Only registered users can post a message ---pages 1
woody: Lily of the valley04 Dec 2004 15:48
Do not post this:


Piano arrangement: (clearly audible one)

Lily Of The Valley (Piano arrangement)

guitar 1(piano)                                                   I am
|-----5-------------|-----|-----5--------------------5----5---5--3----|
|-----5----5----6-8-|--o/-|-----5-------13-13--------5----5---5--3--5-|
|----------5----7-9-|--/--|----------5--14-14-10-10--5----5---5--4--5-|
|---7----7---7------|-/o--|---7----7----14-14-12-12-(7)--(7)--7--5--5-|
|-7-----------------|-----|-7--------------12-12-12-----------7--5--3-|
|-5-----------------|-----|-5--------------------10----5----5-5--3----|
|
|optional guitar:
|-----17------------|-----|-----17------5--5--5--5--5------------3---|
|-----17--17___r15--|-----|-----17------5--5--6--6--5------------3---|
|-------------------|-----|-------------5--5--7--7--5-let-ring---4---|
|-------------------|-----|-------------7--7--7--7--7------------5---|
|-------------------|-----|-------------5--5--5--5--7------------5---|
|-------------------|-----|-------------5--5--------5------------3---|


Still working on it...
1.PD 08 Dec 2004 11:07
Thanks Woody. If you feel you have posted the "final" version of this tab, let us know!
2.woody 12 Dec 2004 18:17
HAHA,
I'm gonna do the whole song, so give me time!
I was just submitting it to see wherever it is correct!

3.Fred 11 Jul 2005 15:42
I found a very accurate tab for this song at
music.shanemcdonald.org

Theres also a site queen.shanemcdonald.org which links to these tabs.
4.woody 12 Jul 2005 22:50
Thanks for your help, I haven't quite bothered to get round to it yet, but someday one day!
I can only see chords there, but I can already see that mine needs correcting!!!
I'll start it soon again!
Thanks anyway Fred. Looks like a nice site!
pages 1