HOME FORUM

Login






Register
Search
List of users


PLEASE NOTE THAT THIS FORUM IS TAKEN FROM PREVIOUS VERSION OF QUEEN SONGS SITE.
Path: Queen Songs - Forum - Tabs & Chords: tabs and chords to updateBookmark and Share

Forum

--- Only registered users can post a message ---pages 1
PD: tabs and chords to update05 Nov 2004 11:19
In this thread I collect the tabs and chords to update in the archive.
Soul Brother - tab
See What A Foo Ive Been - tab - overwrite old tab
Get Down Make Love - tab
The Hero - chords
I Go Crazy - tab
One Vision - Live Magic
You Take My Breath Away - fingerstyle tab, 3rd version
Father To Son - tab
Millionaire Waltz - tab
The Night Comes Down - chords
My Life Has Been Saved - tab
Golden Boy - chords
Love Kills - chords
Put Out The Fire - rhythm guitars added to the existing tab
All Gods People - chords
My Melancholy Blues - chords - corrected
Love Token - tabs - new
La Japonaise - Mercury - chords - new
Going Back - chords
In The Lap Of The Gods...Revisisted (Live at Wembley)
I Cant Live With You - tab
Step On Me - chords
Dreamers Ball - tabs - corrected (partly. more to come)
Bijou - chords
Fairy Feller's Master-Stroke - tab - updated/extended
How Can I Go On

Excuse me folks, I hezitated to update three tabs/chords:
White Queen, Jealousy, Prophet Song, Lilly Of The Walley, One Vision.
Maybe next time. Fortunately they are available here on the forum.


1.PD 05 Nov 2004 11:19

Queen: Soul Brother
Solo TAB

    |-----------------------------------------------------------------------|
    |--------------------------------------------------11-10-9-8-7----------|
    |--10b-10b-10b-10b-10b-10b__-10brp8-10--10brp8-----------------8b-------|
    |----------------------------------------------10-----------------1010--|
    |-----------------------------------------------------------------------|
    |-----------------------------------------------------------------------|
 
                                 
    |-----------------------------------------------|
    |--11b__----------------------------------------|
    |---------10b--------8------------------10br-8--|
    |-------------8-9-10---10-----8/10-8-10---------|
    |-------------------------11--------------------|
    |-----------------------------------------------|

     Henrik

 
2.PD 05 Nov 2004 11:21
         
Queen: See What Fool Ive Been
     Words and Music by Brian May


|-------------|--------------------------------------------------|
|--9--10------|--9---7__-----------------------------2-----------|
|--9---9--o/--|--9---7__-------6-----4--4---------5--3--0-----0--|
|--9--11--/o--|--9---7__--4----6--6--4--4---------5--2--2--2--0--|
|--7---9------|--7---5__--2--2----2--2--2--0------3--4--0--2--7--|
|-------------|----0-------------------------3-0-----------0--0--|
          2x
|-----------------------------------------------------------------------------------------|
|--2--4-----------------------------------------------------------------------------------|
|--2--4-----------------------------------------------------------------------------------|
|--2--4----------------------99999999999--9-9--11-11--9-9--11-11--------------------------|
|--0--2--2-2--4-4--2-2--4-4--99999999999--7-7---7--7--7-7---7--7--9-9--11-11--9-9--11-11--|
|--------0-0--0-0--0-0--0-0--77777777777--------------------------7-7---7--7--7-7---7--7--|

|-------------------------------------------------------------------------|
|-------------------------------------2--4--------------------------------|
|--12---------------------------------2--4--------------------------------|
|------14-----------------------------2--4-------------------99999999999--|
|----------12b--10------12br--10------0--2-------------------99999999999--|
|-------------------12------------12--------7-7-6-6-5-5-4-4--77777777777--|
             
|--------------------------------------------------15---------------------------------|
|------------------------------------------------------17-----------------------------|
|----------------------------------------------------------14--12b------14br--12------|
|--9-9--11-11--9-9--11-11-------------------------------------------14------------14--|
|--7-7---7--7--7-7---7--7--9-9--11-11--9-9--11-11-------------------------------------|
|--------------------------7-7---7--7--7-7---7--7-------------------------------------|

|-----------------------------------------|
|--2--4-----------------------------------|
|--2--4-----------------------------------|
|--2--4----------------------99999999999--|
|--0--2--2-2--4-4--2-2--4-4--99999999999--|
|--------0-0--0-0--0-0--0-0--77777777777--|
             
|-----------------------------------------------------------------|
|-----------------------------------------------------------------|
|-----------------------------------------------------------------|
|--/9-99999--/9-99999----------------------/9-99999--/9-99999-----|
|--/7-77777--/7-77777--/9-99999--/9-99999--/7-77777--/7-77777...--|
|----------------------/7-77777--/7-77777-------------------------|

 E (VII) B (VII)
             
|--------------------------------------------------|
|--------------------------------------------------|
|--------------------------------------------------|
|--9-9--11-11--9-9--11-11--------------------------|
|--7-7---7--7--7-7---7--7--9-9--11-11--9-9--11-11--|
|--------------------------7-7---7--7--7-7---7--7--|

|------------------------------------------------------------------------|
|------------------------------------2--4--------------------------------|
|-12---------------------------------2--4--------------------------------|
|-----14-----------------------------2--4-------------------99999999999--|
|---------12b--10------12br--10------0--2-------------------99999999999--|
|------------------12------------12--------7-7-6-6-5-5-4-4--77777777777--|

 E (VII) B (VII)  

|-------------------------------------------------------------------------------------|
|-----------------------------------------------------------------------------2--4__--|
|------------------------------------------12---------------------------------2--4__--|
|----------------------4-4--6-6--4-4--6-6------14-----------------------------2--4__--|
|--2-2--4-4--2-2--4-4--2-2--2-2--2-2--2-2----------12b--10------12br--10------0--2__--|
|--0-0--0-0--0-0--0-0---------------------------------------12------------12----------|

|--9b10--9-7---------------------------------------------|
|-----------10-8-------------------------------12--4-5_--|
|----------------9-7tr9-----9-9-11-11b12r11--9-----6-7_--|
|-------------------------9------------------------5-6_--|
|--------------------------------------------------6-7_--|
|--------------------------------------------------------|

tr: Henrik (first stave: PD)
3.PD 05 Nov 2004 11:23

Queen:   Get Down Make Love
    Words and Music by Freddie Mercury

               Some Licks
               
               0:30       0:47      0:50 0:56   1:03              
              |---------|---------|-----------|-----------------|
              |--14pbr--|---------|-----------|-----------------|
              |---------|----4/6--|--8--------|--6-6-6-6-8-8-8--|
              |---------|---------|--8--------|-----------------|
              |---------|--6------|--6--------|-----------------|
              |---------|---------|-----------|-----------------|
               

                1:25           1:31          1:43          
              |---------------|-------------|--------------------|
              |---------------|-------------|--------------------|
              |---------------|-------------|--6pbr--------------|
              |---------------|-------------|--------------------|
              |---------------|--6----------|-------6h8p6trdown--|
              |--0trdown------|-------------|--------------------|                            
Volume control
                               fade in/out

               1:47     1:56  2:05                         2:11                  
              |-------|-----|----------------------------|-----------|
              |--14b--|-----|----------------------------|-----------|
              |-------|-----|------8-----8-----8-----8\--|-----------|
              |-------|--6--|--6h8---6h8---6h8---6h8-----|--------6--|
              |-------|--6--|----------------------------|--6-7-8----|
              |-------|--4--|----------------------------|-----------|

             
               2:15    3:21            3:28      3:31
              |-------|--------------|---------|-------|
              |-------|--------------|---------|-------|
              |----8--|---------6b~--|--8\6/8--|-------|
              |----8--|--------------|--8\6/8--|--6\4--|
              |--6-6--|----4-6-------|--6\4/6--|--6\4--|
              |-------|--6-----------|---------|--4\2--|


              Play G in the Choruses

              trdown: Press down the tremolo Bar

 
              Henrik
4.PD 05 Nov 2004 11:25

Queen:      The Hero
   Words and music by Brian May
   
 AAA A/D A
 AAA A/D A

        B             E    D  A
So you feel that you ain't nobody
        B        E   D  A
Always needed to be somebody
          D           C#
Put your feet on the ground
          B            A
Put your hand on your heart
           G#          G  
Lift your head to the stars
         F#                AA
And the world's for your taking

 AAA A/D A
 AAA A/D A
 AAA A/D A
 AAA A/D A

So you feel it's the end of the story
Find it all pretty satisfactory
Well I tell you my friend
This might seem like the end
But the continuation
Is yours for the making

 AAA A/D A
 AAA A/D A

Yes you're a hero


------------------
Tr: Henrik
5.PD 05 Nov 2004 11:26

Queen:    I Go Crazy  
  Words and Music by Brian May


A  A/D                                         D
I took my baby dancing - to see a heavy band
A  A/D
But I never saw my baby 'til the encore
                                 D
She had the singer by the hand
  B
I didn't wanna cry cos I had to be cool
  D                          
I didn't wanna tell you that you're much too cruel
  E                                                A E A E A E
Did you have to run off with that doggone fool...


A  A/D
 All I gotta do is think about you
                                D
Every night and day I go crazy
A A/D                                              
All I gotta do is get my hands on you
                                     D
You better stay away from me baby...


A  A/D                                                        D
I wouldn't mind the postman - if the neighbours didn't know
A A/D                                                                
Or the gas man,electric man,man to fix the car
                        D
I'd have to let it go
B
But you had to bring me down for a rock'n'roll clone
D
Leave me like a sucker standing all alone
E                                                   A E A E A E
Did you have to run off with that rolling stone?

Go ahead fool


Chorus
               (E)VII
              |--------------------------------|  
A D A D C# B  |--------------------10-9--10-9--|
              |---------------------9-9---9-9--|
              |--7--9---7---6------------------|
              |---7---7---7---7----------------|
              |--------------------------------|

     
    A  A/D
So I ain't gonna go and see the Rolling Stones no more

I don't wanna go and see Queen no more no more

I ain't gonna go and see the Rolling Stones no more

I don't wanna go and see Queen no more no more

 
Slide Solo (not 100% accurate)
|-------------------------------------------------|
|--/14141414\--/14141414\--14\12-14\12-14\12-/14--|
|--/14141414\--/14141414\--14\12-14\12-14\12-/14--|
|--/14141414\--/14141414\--14\12-14\12-14\12-/14--|
|-------------------------------------------------|
|-------------------------------------------------|

|-----------------------------------------------------------|
|-12/1414141414\12--12/1414141414\12--12/1414141414\12--12--|
|-12/1414141414\12--12/1414141414\12--12/1414141414\12--12--|
|-12/1414141414\12--12/1414141414\12--12/1414141414\12--12--|
|-----------------------------------------------------------|
|-----------------------------------------------------------|

|--------------------------------------------------------------|
|---/1414141414/17171717\14141414--14\12-14\12-14\12-14\12-\7--|
|---/1414141414/17171717\14141414--14\12-14\12-14\12-14\12-\7--|
|---/1414141414/17171717\14141414--14\12-14\12-14\12-14\12-\7--|
|--------------------------------------------------------------|
|--------------------------------------------------------------|

|---------------------------17\---17\----------|
|----------------------------------------------|
|--/14--/14--/17--/14--/14--------------/14----|
|----------------------------------------------|
|----------------------------------------------|
|----------------------------------------------|


A A/D                                                      D
Now I don't wanna hurt you - like you been a-hurting me
A A/D
But you know I'll be watchin'
                                              D
Rolling on the floor next time you're on TV
B
Had enough of your pretending that you know where it's at
D
Coming on to all the boys like a real spoilt brat
E                                                   A E A E A E
To think I nearly let you get away with all that      

No way man    


Chorus


A A/D then A D  A D  A D  A D  |-----------------------------------------------|
                               |--------------------------------------------2--|
                               |--------------------------------------------2--|
                               |--------------------------------------------2--|
                               |--3-0-3-0-----3-0-3-0------3-0-3-0----3-0---0--|
                               |----------3-----------3------------3------3----|


 Henrik
6.PD 05 Nov 2004 11:27

Queen: One vision  - LIVE MAGIC

                                                                       
E||------------------|-----------------------|------------------------|
B||------------------|-----------------------|------------------------|
G||------------------|-----------------------|------------------------|
D||------------------|--7/---x----x--7----7--|--7----x--x--x--5----5--|
A||------------------|--5/---x----x--4----5--|--5----x--x--x--2----3--|
E||------------------|-----------------------|------------------------|


                                                                     
-----------------------|----------------------|---------------------|
-----------------------|----------------------|---------------------|
-----------------------|----------------------|---------------------|
--5----x----x--5----5--|--5------7----7--7----|--7/---------7----7--|
--3----x----x--2----3--|--3------4----5--5----|--5/---------4----5--|
-----------------------|----------------------|---------------------|


                                                                     
----------------------|----------------------|----------------------|
----------------------|----------------------|----------------------|
----------------------|----------------------|----------------------|
--7/-------x--5----5--|--5------5--5------5--|--5------7----7--7----|
--5/-------x--2----3--|--3------2--2------3--|--3------4----5--5----|
----------------------|----------------------|----------------------|


                                                                         
---------------------|------------------------|---------------19~-------|
---------13~---------|--15r-----------17r--15-|--17~--------------------|
---------------------|------------------------|--------0/-16------------|
--7/-----------------|------------------------|-------------------------|
--5/-----------------|------------------------|-------------------------|
---------------------|------------------------|-------------------------|


                                         
----17--15--14--15--17------------------|
------------------------15--17b---19/---|
----------------------------------------|
----------------------------------------|
----------------------------------------|
----------------------------------------|


                                                                             
-----------10--------------------------|-------------------------------------|
----13~-------13-12--------------------|-------------------------------------|
--------------------12r-10----12----10h|--11----------10---------------------|
---------------------------12----12----|-----12h10---------------------------|
---------------------------------------|-----------12----10-8----------------|
---------------------------------------|----------------------10~-10/-----8--|


                                                                   
----------------------|----------------------|---------------------|
----------------------|----------------------|---------------------|
----------------------|----------------------|--7------------------|
----------------------|----------------------|--7----------7----7--|
----------------------|----------------------|--5----------4----5--|
--8~-----7--7~-----8--|--8~-----9~---10/-----|---------------------|


                                                                   
---------------------|----------------------|----------------------|
---------------------|----------------------|----------------------|
---------------------|----------------------|----------------------|
--7----------5----5--|--5------5--5------5--|--5------7----7--7----|
--5----------2----3--|--3------2--2------3--|--3------4----5--5----|
---------------------|----------------------|----------------------|


                                                                   
---------------------|---------------------|----------------------|
---------------------|---------------------|----------------------|
--7------------------|---------------------|----------------------|
--7----------7----7--|--7----------5----5--|--5------5--5------5--|
--5----------4----5--|--5----------2----3--|--3------2--2------3--|
---------------------|---------------------|----------------------|


                                                                         
-----------------------|--10--------------------|-----------------------|
-----------------------|--10----------10----10--|--10----------8----8---|
-----------------------|--11----------9-----11--|--11----------7----9---|
--5------7-----7--7----|--12----------11----12--|--12----------9----10--|
--3------4/-5--5--5----|------------------------|-----------------------|
-----------------------|------------------------|-----------------------|


                                                                       
------------------------|------------------------|--------------------|
--8-------8--8------8---|--8---------------------|-----------------3--|
--9-------7--7------9---|--9---------------------|--2--------------2--|
--10------9--9------10--|--10------7-----7--7/---|--2--------------4--|
------------------------|----------4/-5--5--5/---|--0-----------------|
------------------------|------------------------|--------------------|


                                                                     
---------------------|--------------------|-------------------------|
--3------------------|-----------------2h-|--3h-2h-3h-2h-3h-2-------|
--2------------2--2--|--2--------------2--|-------------------------|
--4---------------2--|--2--------------2h-|--4h-2h-4h-2h-4h-2----5--|
--0------------------|--0-----------------|----------------------3--|
---------------------|--------------------|-------------------------|


                                                                         
----------------------|-----------------------|-------------------------|
----------------------|-----------------------|-------------------------|
--5-------------5--3--|----2------------------|----------5--------------|
--5----------5--------|-------3--5----3----2--|-------5--5--5--0--x--2--|
--3-------------------|-----------------------|----3--------------x--0--|
----------------------|-----------------------|-------------------------|


                                                                     
----------------------|----------------------|-----------------------|
----------------------|----------------------|-----------------------|
----------------------|----------------------|-----------------------|
----------------------|--7/-------x--7----7--|--7----x----x--5----5--|
----1----2~---3~---4--|--5/-------x--4----5--|--5----x----x--2----3--|
----------------------|----------------------|-----------------------|


                                                                   
--------------------|-----------------------|---------------------|
--------------------|----6------------------|---------------------|
--------------------|----5------5--------7--|---------------------|
--5-----------------|----3---------5-----7/-|----------x--7----7--|
--3-----------------|-----------------5--5/-|----------x--4----5--|
-----------3--------|-----------------------|---------------------|


                                                                       
----------------------|------------------------|----------------------|
----------------------|------------------------|----------------------|
----------------------|------------------------|-----------------7/---|
--7--------x--5----5--|--5-------5--5-------5--|--5------7----7--7/---|
--5--------x--2----3--|--3h---0--2--2----0--3--|--3------4----5--5/---|
----------------------|------------------------|----------------------|


                                                               
--------------------|--------------------|--------------------|
-----------------3--|--3--------------2--|-----------------2h-|
--2--------------2--|--2--------------2--|--2--------------2--|
--2--------------4--|--4--------------2--|--2--------------2h-|
--0-----------------|--0-----------------|--0-----------------|
--------------------|--------------------|--------------------|


                                                                         
--------------------------|-----------------------|----------------------|
--3h-2h-3h-2h-3h-2h-3-----|-----------------------|-------5b----------5--|
-----------------------5--|--5----5----------5----|-------------------5--|
--4h-2h-4h-2h-4h-2h-5--5--|--5----5----2--5--5----|----3-----------3--5--|
-----------------------3--|--3----3---------------|----------------------|
--------------------------|-----------------------|----------------------|


                                                                 
---------------------|----------------------|-------------------|
---------------------|----------------------|-------------------|
---------------------|----------------------|--7/---------------|
------------5-----2--|----------------------|--7/---------------|
---------------3--0--|----1----2~---3~---4--|--5/---------------|
---------------------|----------------------|-------------------|


                                                                               
------------------|------------------|--------------------|-------------------|
------------------|------------------|--------------------|-------------------|
------------------|------------------|--------------------|--7----------------|
------------------|------------------|--------------------|--7----------------|
------------------|------------------|--------------5r--3-|--5----------------|
------------------|------------------|--------------------|-------------------|


                                                                             
------------------|------------------|------------------|--1----------------|
------------------|------------------|------------------|--3----------------|
------------------|------------------|------------------|--3----------------|
------------------|------------------|------------------|--0----------------|
------------------|------------------|------------------|-------------------|
------------------|------------------|------------------|-------------------|


                                                                               
--3----------------|--1----------------|--3----------------|--1----------------|
--5----------------|--3----------------|--5----------------|--3----------------|
--5----------------|--3----------------|--5----------------|--3----------------|
--0----------------|--0----------------|--0----------------|--0----------------|
-------------------|-------------------|-------------------|-------------------|
-------------------|-------------------|-------------------|-------------------|


                                                                 
--0----------------|--------------------|------------------------|
--3----------------|--------13~---------|-----17r-15-17~---------|
--3----------------|--------------------|------------------------|
--0----------------|--------------------|------------------------|
-------------------|--------------------|------------------------|
-------------------|--------------------|------------------------|


   t      t    t     t    t     t    t    t     t    t     t                
-----------------------------------------------------------------|
--13h-11-13h10-13h9-13h8-----------------------------------------|
-------------------------13h11-13h10-13h8------------------------|
------------------------------------------15h10-15h8-------------|
-----------------------------------------------------15h10-15h8--|
-----------------------------------------------------------------|


                                                                     
---------------------|-----------------------|-----------------------|
---------------------|-----------------------|-----------------------|
---------------------|-----------------------|-----------------------|
----------------0----|--7----x----x--7----7--|--7----x----x--5----5--|
--6-------------0----|--5----x----x--4----5--|--5----x----x--2----3--|
-------1-------------|-----------------------|-----------------------|


                                                                       
------------------------|---------------------|-----------------------|
------------------------|---------------------|-----------------------|
-----7--7/-5--5---------|---------------------|-----------------------|
--5--5--5/-3--3---------|---------------------|--7----x----x--7----7--|
--3------------------5--|--5/-3--3------------|--5----x----x--4----5--|
---------------------3--|--3/-1--1------------|-----------------------|


                                                                         
-----------------------|-----------------------|-------------------------|
-----------------------|-----------------------|-------------------------|
-----------------------|-----------------------|-------------------------|
--7----x----x--5----5--|--5----x-------x--5----|--x-------x--5-----------|
--5----x----x--2----3--|--3----x--5----x--3----|--x--5----x--3--0/-12/---|
-----------------------|----------3------------|-----3-------------------|


                                                               
--------------------|--------------------|--------------------|
-----------------2--|--3-----------------|-----------------2h-|
--2--------------2--|--2--------------2--|--2--------------2--|
--2--------------2--|--4--------------2--|--2--------------2h-|
--0-----------------|--0-----------------|--0-----------------|
--------------------|--------------------|--------------------|


                                                                 
-----------------------|-------------------|--------------------|
--3h-2h-3----3h-2------|--2----------------|--3-----------------|
-----------------------|--2----------------|--2-----------------|
--4h-2h-4----4h-2------|--2----------------|--4-----------------|
-----------------------|--0----------------|--0--------------0--|
-----------------------|-------------------|--------------------|


                                                                   
------------------------|----------------------|-------------------|
----5/-3--2--2--0----2--|--3-------------------|--3----------------|
----x--x--2--2--0----2--|--0----0----0----0----|--2----------------|
----5/-4--2--2--0----2--|--0----0----0----0----|--0----------------|
-------------0----------|-------x----x----x----|-------------------|
------------------------|-------3----3----3----|-------------------|


                                                                   
-------------------|--17----17----17----------|-------------------|
-------------------|--20~---20~---20~---20~---|-------------------|
----------0--------|--------------------------|-------------------|
-------------------|--------------------------|-------------------|
-------------------|--------------------------|-------------------|
-------------------|--------------------------|----0--------------|


                                                                   
--------------------|-------------------|--------------------------|
--------------------|-------------------|----18b-----19/-------19~-|
--------------------|-------------------|------------------16------|
--------------------|-------------------|--------------------------|
--0------0----------|--0----------------|--------------------------|
--------------------|-------------------|--------------------------|


                                                               
--------------------|---------19b---------|--------20~---------|
------------20~-----|----0----------------|--------------------|
--------------------|---------------------|--------------------|
--------------------|---------------------|--------------------|
--------------------|---------------------|--------------------|
--------------------|---------------------|--------------------|


                                                 
---17-20h17-20h17-19h17-18h17----17-------------|
------------------------------20----20h17-19h17-|
------------------------------------------------|
------------------------------------------------|
------------------------------------------------|
------------------------------------------------|


                                                 
-----17----17------------------------------------|
--18---------------------------------------------|
--------20------19-17----19----17----------------|
--------------0-------19----19----19h17----17----|
----------------------------------------19----19h|
-------------------------------------------------|


                                                                 
----------------------------------|-----------------------------|
----------------------------------|-----------------------------|
--------------------19--17/-------|------17b19/-----16h0----17r-|
--------------19-19---------------|--2--------------------------|
--17h15-17h19---------------------|--0-------------------x------|
----------------------------------|-----------------------------|


                                                                         
----------------------|------------------------|-------------------------|
-----------------0----|--15b---0---------------|-------------------------|
------0----17b---0----|--------0---------------|-------------------------|
-----------------0----|-------------------0----|----0--------------------|
----------------------|-------------------0----|----0--------------------|
----------------------|----------3---0---------|-------3--2--0--3--3--0--|


                                               
-----20~---------------|----------------------|
--------------------0--|----------x-----20~---|
-----------------------|----------x-----------|
-----------------0-----|----------x-----------|
-----------------------|-------------0--------|
--3--------------------|----------------------|


                                           
------------------------------------------|
------20h17----17-20h17-19h17-18h17----17-|
------------19----------------------20----|
------------------------------------------|
------------------------------------------|
------------------------------------------|



-------------------------------------------------|
-------------------------------------------------|
--21-19-17-----19----19----19----17b-19-19-19r17-|
-----------19-----19----19----19-----------------|
-------------------------------------------------|
-------------------------------------------------|


                                               
----------------------------------------------|
----------------------------------------------|
--19r17-19--19-17-19-17b-19-17b19-17b19-17b19-|
----------------------------------------------|
----------------------------------------------|
----------------------------------------------|


                                                                             
-------------------------------------|-------------------|--0----------------|
-------------------------------------|--3----------------|--3----------------|
--19-17-17b19--19-17b19-17-19/-------|--3----------------|--3----------------|
--------------------------------0----|--0----------------|--0----------------|
-------------------------------------|-------------------|-------------------|
-------------------------------------|-------------------|-------------------|


                                                               
--1----------------|--0-------------------|--------------------|
--3----------------|--3-------------------|--2--------------2h-|
--3----------------|--3----------13r-0----|--2--------------2--|
--0----------------|--0--------------0----|--2--------------2h-|
-------------------|----------------------|--0-----------------|
-------------------|----------------------|--------------------|


                                                                   
--------------------|--------------------|-------------------------|
--3-----------------|--2--------------2h-|--3h-2h-3h-2h-3h-2-------|
-----------------2--|--2--------------2--|----------------------5--|
--4--------------2--|--2--------------2h-|--4h-2h-4h-2h-4h-2----5--|
-----------------0--|--0-----------------|----------------------3--|
--------------------|--------------------|-------------------------|


                                                                               
-------------------|-------------------|-------------------|-------------------|
-------------------|-------------------|-------------------|-------------------|
----------------3--|----------------5--|----------------3--|----------------5--|
----------------3--|----------------5--|----------------3--|----------------5--|
----------------3--|----------------3--|----------------3--|----------------3--|
-------------------|-------------------|-------------------|-------------------|


                                                                   
---------------------|---------------------|----------------------|
---------------------|---------------------|----------------------|
------------0h-2--2--|---------------------|-------------------2--|
------------0h-2--2--|---------------------|-------------------2--|
------------------0--|--------1~-----0--2~-|------0--3~-----0--0--|
---------------------|---------------------|----------------------|


                                                               
----------------------|-------------------|-------------------|
----------------------|-------------------|--8----------------|
----------------------|--7/---------------|--8----------------|
----------------------|--7/---------------|--8----------------|
----1----2~---3~---4--|--5/---------------|--6----------------|
----------------------|-------------------|-------------------|


                                                               
--------------------|-------------------|----------------------|
-----------9--------|-------------------|--11------------------|
------8----6--------|-------------------|--11------------------|
------8----6--------|--------------8/---|--11--------------11--|
-----------6--------|--------------8/---|--9-------------------|
--------------------|-------------------|----------------------|


                                                                 
------------------------------|---------------------------------|
--12--------12--------11------|------12---------12----------11--|
------9---------9---------11--|----------9----------11----------|
---------9---------9----------|--11---------11----------11------|
------------------------------|---------------------------------|
------------------------------|---------------------------------|


                                                                   
-----------------------------|------------|------------------------|
----------12---------11------|--11/-------|--14--14--14~-----------|
--11----------9------11------|--11/-------|--14--14--14~-----------|
------11---------11--11------|--11/-------|--14--14--14~-----------|
-----------------------------|------------|--12--12--12------------|
-----------------------------|------------|------------------------|


                                                                       
-----------15--------|--15----15----15--------|--15----15----15--------|
-----------15b-------|--15b---15b---15b-------|--15b---15b---15b-------|
--0------------------|------------------------|------------------------|
--0------------------|------------------------|------------------------|
--0------------------|------------------------|------------------------|
---------------------|------------------------|------------------------|


                                                                         
--15--------|--------------------|------------------|--------------------|
--15b-------|--16~---------------|------------------|----------16/-------|
------------|--16~---------------|------------------|----------16/-------|
------------|--16~---------------|------------------|----------16/-------|
------------|--14~---------------|------------------|----------14/-------|
------------|--------------------|------------------|--------------------|


                                                                 
--------------------|--------------------|----------------------|
--2--------3--------|--------------------|----------------------|
--2--------0--------|--------------------|----------------------|
--2--------0--------|--2~----------------|----------------------|
--0--------2--------|--3~-------4~-------|--5~---6~---7~---8~---|
--------------------|--------------------|----------------------|


                                                                           
-------------------------------|--------------------|----------------------|
-------------------------------|--------------------|--13~--------------10-|
-------------------------------|--------------------|----------------------|
-----------------8~-9~-10~-11~-|--12~---------------|----------------------|
--9~-10~-11~-12~---------------|--------------------|----------------------|
-------------------------------|--------------------|----------------------|


                                                       
-------------------------------------------------------|
--13h10-13h10-------------------10---------------------|
--------------13h12h10----12----10---------------------|
-----------------------12----12----12h10----10---------|
-----------------------------------------12----12h10h8-|
-------------------------------------------------------|


                                                       
--------------------------|------------------|-------||
--------------------------|------------------|-------||
--------------------------|------------------|-------||
--------------------------|------------------|-------||
--10h-8------8~-----------|------------------|--8/---||
---------10---------------|------------------|-------||

Tr: Daniel
7.PD 05 Nov 2004 11:29

Queen: You Take My Breath Away

Here is a sketch of a fingerstyle version transposed to D-minor.

xx0768

|-5-----5-6-----10-5-----5-6-----10-------13-12-8-10-5---|
|-6---6-------8----6---6-------8----10-----------------6-|
|---7-------9--------7-------9---------10----------------|
|-0----------------0-------------------------------------|
|--------------------------------------------------------|
|--------------------------------------------------------|

repeat

|---------------------------------13---5-----5-6-----10-------13-12-8-10-5---|
|-6-------8-------10---------11---13---6---6-------8----10-----------------6-|
|-7---7-7-9---9-9-10---10-10-12----------7-------9---------10----------------|
|-0-------0--------0----------0--------0-------------------------------------|
|----------------------------------------------------------------------------|
|----------------------------------------------------------------------------|

|-3-3-6---5--------3-3-6---5--------3-3-6-5---------------------|
|-5-------6--------5-------6--------5---------------------------|
|---------7----------------7--------5-----5---------------------|
|---------0----------------0--------------3---------------------|
|-4----------------4----------------3---------------------------|
|---------------------------------------------------------------|

(second verse: "whisper in...")
|...-3------------|
|...-5-5----------|
|...-5---5-3-2----|
|...---------3----|
|...-3-------3----|
|------------1----|

|-3-3-3-1-3---1-3-----3---3---5-1-----1-0-1---0-1-----1-0-1---3---|
|-3-------------------5-6-------------1---------------3-----------|
|-3-------------------5-------------2---------------4-------------|
|-----------------------------------------------------------------|
|-1---------1-----3---------------0---------0---------------------|
|-------------------------------------------------4---------4-----|

|-1---------------------------------5-----5-6-----10...-|
|-3---3-----------3-3-------3-1-----6---6-------8---...-|
|-3-------3-2-----3-------2-----2/7-7-7-------9-----...-|
|-------------5---------------------0-------------------|
|-------------------------------------------------------|
|-3-----------------------------------------------------|

Bridge
|-------------3-----3-------3-3-3-3-3---6---5-3---3---3---3-5-----1-------------------------|
|-----5---6---5---5---6---5---5-------6-------5-----6---6------------1----------1---1---1---|
|-7-----------5-5-----3---3---5-------3-------5--------------------------3-2----2---2---2---|
|---------------------------------------------------------------3------3------3---3---3---3-|
|-------------3-------3-------3-----------3---3---------------------------------------------|
|-------------------------------------------------------------1-----1--------1--------------|

|---------1-------2-2-2-2-5-------6-5-5-3-3-------6--------------1-|
|-3-------3-------1-------4-------3---------------6---10-8-6-5-----|
|-3-------3-------2-------5-------3---------------6----------------|
|-3---------------0------------------------------------------------|
|-1----------------------------------------------------------------|
|---------------------------------3---------5---6------------------|

1-----1-0-1---0-1---1-0-1---3---1---------------------------------5...|
|-----1-------------3-----------3---3--------------3------3-1-----6...|
|---2-------------4-------------3----------3-2-----3----2-----2/7-7...|
|----------------------------------------------5------------------0...|
|-0---------0---------------------------------------------------------|
|-----------------4-------------3-------------------------------------|

PD. 2004
8.PD 05 Nov 2004 11:35

The Millionaire Waltz

 This tab contains some licks, Rhytm parts and the Main Solo
 In the song the licks are played by several guitars played together, but this is an arrangment
for one guitar
 
  0:45
|------------------------------------------7------5---8~---------|
|--------------3------3-6-------8-------10------8---8------------|
|----------3-5----3-5--------7-9----9-10-------------------------|
|-7-7-7--7-----------------7-------------------------------------|
|----------------------------------------------------------------|
|----------------------------------------------------------------|
  1:48
|----------------------------------------------------------------|
|-----------------------5-6---8-10-------8-10-11----13-15--------|
|-13/12/10/5--7-9-5---7------------10---------------------15-----|
|----------------------------------------------------------------|
|----------------------------------------------------------------|
|----------------------------------------------------------------|
 
  2:07
|---------------------------------------------------------------------------------11~-|
|-11--------------------------------------13---13-11-10-11-------------------13-------|
|----------------------10-13--------10-13------------------12----------12-------------|
|----13-10----------12-----------12---------------------------13-12-13----------------|
|----------13-12-13-----------13------------------------------------------------------|
|-------------------------------------------------------------------------------------|
                      2:21
|----------------------------------------------------------------|
|--11\8\4\1/3/8/4~-----------------------------------------------|
|----------------------------------------------------------------|
|-------------------------0-0-2-2-3---3-2---3-2-1---1------------|
|---------------------3-3-----------------------------4-3--------|
|---------------------------------------------------------4------|

|--------------------------------------------------------------------|
|--------------------------------------------------------------------|
|--------------------------------------------------------------------|
|-6---6-5-3--8------------------------------------------8_-----------|
|-4---4-3-1--6-------4-6------3-4-6------4-6-------3-4--6_--6-4------|
|----------------4-6------4-6--------4-6-------4-6--------------6-4--|

  Solo
|-------------------------------------------------------------------|
|-4-3h4-3h4-3h4-3h4/13-13-13---11h13p11--9h11p9--8h9p8--6h8p6-------|
|--------------------------------------------------------------5-6~-|
|-------------------------------------------------------------------|
|-------------------------------------------------------------------|
|-------------------------------------------------------------------|

|----------------------------------------------------------------|
|-2-1h2-1h2-1h2-1h2/11-11-11---11-9-8-6--------------------------|
|---------------------------------------5-6----------------------|
|----------------------------------------------------------------|
|----------------------------------------------------------------|
|----------------------------------------------------------------|

|-------------------------------------------------b13-13------------|
|-4-3h4-3h4-3h4-3h4/13-13-13---14p13----13h16p13----------13-16-14~-|
|------------------------------------16-----------------------------|
|-------------------------------------------------------------------|
|-------------------------------------------------------------------|
|-------------------------------------------------------------------|

|-----------------------------13--11-9-8----------------------------------|
|---------8-6h8-9-8h9-11-9--------------11-9-8----------------------------|
|-10-9h10--------------------------------------10-8-----------------------|
|---------------------------------------------------12-10-----------------|
|---------------------------------------------------------13-11-13-10-----|
|---------------------------------------------------------------------13--|

|-13--11-9-8------------------------|
|------------11-9-8-----------------|
|-------------------10--------------|
|----------------------13-10--------|
|----------------------------13~----|
|-----------------------------------|
  3:42
|---------------------------------------------------0-2-3-8~---------|
|--11--11\9\7---3-6-4-4~----------------------0-1-3------------------|
|---------------------------------------2-0-2------------------------|
|-----------------------------2---5-4-5------------------------------|
|--------------------------------------------------------------------|
|--------------------------------------------------------------------|

   
|------------------------------------------------------17-15------------15-------------------------|
|--------------------------8-10-10~---10-11-13-15--14--------18-17-18-------13-------10-11-13-15~--|
|------------------------------------------------------------------------------10-12---------------|
|--------------------------------------------------------------------------------------------------|
|-7-7-7---7-8-10--7-8-10---------------------------------------------------------------------------|
|--------------------------------------------------------------------------------------------------|

   4:37
|--------------------------------------------------------------------|
|-1-1-1-1------------------------------------------------------------|
|---------3-2-3-2-0-2-0---0------------------------------------------|
|-----------------------3---2------------------------------------5_--|
|-----------------------------3-----3-3-3--3-1-0-1-0---0---------3_--|
|----------------------------------------------------3---3-1-3-0-----|

 15:45 2004-07-17  Tabbed by Henrik Björklund

9.PD 05 Nov 2004 11:41
This transcription is submitted by Hugo (NL)


Queen: THE NIGHT COMES DOWN
From the 1st, self-titled albumn.


{define C# base-fret 1 frets x x 4 1 2 1}
{define C#7 base-fret 1 frets x 4 3 4 2 x}
{define Dmaj7 base-fret 1 frets x x 0 2 2 2}

Intro:  Am  Em   D  C#  A    Dmaj7

[Dmaj7]When I was [D7]young it [G]came to [D]me, and I [G]could see the [C]sun breaking[D]
[Dmaj7]Lucy was [D7]high, and s[G]o was [Bm]I,  [Am]dazzling, [D]holding the [C#7]world
ins[A7]ide
[Dmaj]Once I be[D7]lieved in [G]everyone, e[Gm]veryone and any[D]one can see

{c:Chorus:}
[G]Oh  [A] the [D]night [G]comes [D]down, [Bm]and [F#m]I get af[G]raid, of [F#m]losing my
[D7]way
[G]Oh t[A]he ni[D]ght co[G]mes do[D]wn, [F#m]Oh  [G]  [F#m]    [Em7]   and it's [A7]dark again

[Dmaj7]
Once I could laugh with everyone, once I could see the good in me
The black and the white distinctively, coloring, holding the
    world inside
Now all the world is grey to me, nobody can see
(you gotta believe it)

{c:Chorus, ending:}
[Em7]  and it's [A7]dark again
[Em7]  and it's [A7]dark again [Em]

bass tab

You send
|---------------------------------------------------------------------------------------------
|---------------------------------------------------------------------------------------------
|--------3-------5----12/13---11/12------12------------------------------8-------5---------8--
|-----3------5------------------------12---------10----8----6----6-----------------8--8--8----

submitted by Hugo (NL)
10.PD 05 Nov 2004 11:43

Queen: MY LIFE HAS BEEN SAVED  (1989-single version)
words and music by Queen (Brian)
transcribed by Maxi Dries
Olavarría, Buenos Aires, Argentina

Intro:


E--------------------------------------------------------------------------------
B------------------------8-----8-----8----8-10-11----11--11----10--8--10---------
G---0____/5----5--5--/9-----9---------------------------------------------10-----
D-----------------------------------------------------------------------------10-
A--------------------------------------------------------------------------------
E--------------------------------------------------------------------------------

E------------------------------------------------------------
B------------------------------------------------------------
G---12b14-----12-----10v-----7h9h10--9--7--------------------
D------------------------------------------10--10-p9---------
A-----------------------------------------------------10_____
E------------------------------------------------------------


E------------------------------------------------------------
B---------------------------------________-------------------
G---------7h9h10----12b14----b14--12b14r12p10--10p9----------
D-------9-------------------------------------------10____---
A-(10__)-----------------------------------------------------
E------------------------------------------------------------


E----------------------------------------------------------------------
B---16b18--b18--16b18--b18--16b18----r16vvv-----b16_r14--14---16__b18\\
G----------------------------------------------------------------------
D----------------------------------------------------------------------
A----------------------------------------------------------------------
E----------------------------------------------------------------------
11.PD 05 Nov 2004 11:49

This one is from Erik S.

Freddie Mercury & Monserrat Caballe: The Golden Boy
chords


Intro:
C5  C5  C/E  Fm C7/G  Fm/Ab  Bbm  Bbm7/Ab  F#maj7   Ebm  F#m6/A  Fm7-5  Ddim

Bbm7-5   E6   Bb   Bb7/Ab  Ebm  Ebsus2/F  Ebm/F#   Eb7/G

Abm     Abm/Gb  Emaj7  F#/E  F#m/A   F#sus2/Ab   Ab



C5                                         C/E  
The boy had a way with words, he sang, he moved with grace

                  Fm              C7/G
He entertained so  naturally,  no  gesture out of place

    Fm/Ab            Bbm                      Bbm7 /Ab
His road in life was clearly drawn, he didn't hesitate

  Ebm          F#m6/A    Fm7-5     Ddim     Bbm7-5  E6       Bb  Bb7/Ab        
He played, they  saw,  he conquered  as  the  ma........ster  of........,

      Ebm   Ebsus2/F     Ebm/F#  Eb7/G
as the master  of   his   fate.........


Abm                  Abm/Gb  Emaj7             F#/E
The girl had an iron soul    no-one could recognize

  H/Eb       H/E           H/F#          Eb7/G
Material ambition that her gentleness disguised

    Abm             Abm/Gb  Emaj7          F#/E
She gave herself to him     certain of his fame

F#m/A                     F#sus2/Ab          Ab
Wanted him for luxury for limelight and his name

          Bbm7/Ab   Ab7
And then he sang  to her...


Verse 1:
  C#       A        C#          A#m      D#m  Ab7  C#
I love you for your silence, I love you  for  your peace

C#            C#maj7  C#7   F#           F#m
The still and calm        releases, that sweep into my soul

C#           C    Ab7    C#
That slowly take    control.


I love you for your passion, I love you for your fire
The violent desire, that burns me in it's flame
A love I dare not name.


His rise was irresistible - yeah, he grew into the part
His explanation simply that he suffered for his art
No base considerations of some glittering reward
The prize was knowing that (his work) his work was noticed and adored.


I love you (yes I love you) for your silence (for your silence)
I love you for your peace
The still and calm releases, that sweep into my soul
And slowly slowly takes control.

C#                  Bbm7     Ab7/Eb     C#
He told the truth,  yes,  he  told  the truth (and he told the truth)



Accepting every honour with (with) a masterly display (display)
Of well rehearsed reluctance to be singled out this way
He started to believe that he was all they said and more (and more)
She forgot - she forgot the reasons (reasons) she had wanted him before - yeah.


I love you for your passion (for your passion)
I love you for your fire
The violent desire, burns me in it's flame (burns me)
A love I dare I dare not name.


C#            C#7    F#  
The still and calm releases (releases)

    F#m
That sweep into my soul (sweep into my soul)

    C#/G#
That slowly (slowly) slowly (slowly) slowly (slowly)

                                                  G#7         F#  F#/E  F#/D#  F#/D  C#
slowly (slowly) slowly (slowly) slowly (slowly) slowly take control.



C5                                        C/E
    And when at last they fell apart she wished that she could be

                      Fm             C7/G
The hardened heart of yesterday, as cynical as he

  Fm/Ab            Bbm    Bbm7/Ab                         F#maj7
By changing for the better         she had changed things   for   the worse
                       
    Ebm       F#m6/A       Fm7-5  Ddim     Bbm7-5 E6   Bb Bb7/Ab
The words that made   them happy  once now e...........choed ...

Ebm    Ebsus2/F  Ebm/F#  Eb7/G
echoed  as a     curse........


Outro:
Abm    Abm/Gb  Emaj7  F#/E  F#m/A   F#sus2/Ab   Ab   (Ab9)
                                                    (Harp....)



In the verses where is no chodrs written, it should be played the same chords as in the verse 1.

Transcribed by Erik Suominen, 2004
12.PD 15 Nov 2004 14:30

Filenév: Love Kills chords.txt

LOVE KILLS

intro:
Gm C/G Gm Gm7 gm c/G Gm Gm7 Gm


Gm
Love don't give no compensation

                  C
Love don't pay no bills

Gm
Love don't give no indication

                      C
Love just won't stand still



    Bb      Gm         Gmadd9        Gm
Love kills - drills you through your heart

    Cm   Cmadd9  F7
Love kills -      scars you from the start

            Eb
It's just a living pastime, ruining your heartline

Abadd9
Stays for a lifetime won't let you go

      F7                                 F7/G       Gm
Cause love (love) love (love) love won't leave you alone



Love won't take no reservations
Love is no square deal
Hey love don't give no justification
It strikes like cold steel

Love kills - drills you through your heart
Love kills - scars you from the start
It's just a living pastime
Burning your lifeline
Gives you as hard time won't let you go
Cause love (love) love (love) love won't leave you alone

Gm
Hey love can play with your emotions
Open invitation to your heart
Hey love kills
Play with your emotions
Open invitation to your heart to your heart
Love kills love kills
Hey hey
Love kills (love kills)
Love kills (kills kills kills)
Love can play with your emotions
Open invitation


    Bb            Gm         Gmadd9        Gm
Love kills - hey - drills you through your heart

    Cm   Cmadd9  F7
Love kills -      scars you from the start

            Eb
It's just a living pastime, ruining your heartline

G7
  Won't let you go

C                  Am          Amadd9      Am
Love kills - hey - drills you through your heart

    Dm   Dmadd9  G7
Love kills -      tears you right apart

            F               Bb       Ebadd9
It won't let go it won't let go, Love kills - yeah


Outro:
Cm  Cmadd9  Cm  Fm Fmadd9   Bb7  Ab   Ebadd9

Cm  Cmadd9  Cm  Fm Fmadd9   Bb7  Ab   Ebadd9



Transcription by Erik S.
(This a Version from the Freddie Mercury Album,
which maybe has in some points a little bit
different chords than the rock version of the song)
13.Queenman!! 22 Dec 2004 13:16
Very Nice , must send some stuff too!
14.PD 24 Jan 2005 13:12

Put Out The Fire


Solo transcribed by Kevin Maddison (kevin@insomewhere.fsnet.co.uk)


the solo

the start of the solo has lots of feedback and fret noise
e|---------------------------------------------------------------------
b|--15-b17p17---------15-17p17-15p13-1517-p17--------------------------
g|---------------------------------------------------------------------
d|---------------------------------------------------------------------
a|---------------------------------------------------------------------
e|---------------------------------------------------------------------


e|---------------------------------------------------------------------
b|---15--13-17b15--------13-15--17-----15p1317-------------------------
g|---------------------------------------------------------------------
d|---------------------------------------------------------------------
a|---------------------------------------------------------------------
e|---------------------------------------------------------------------


e|---------------------------------------------------------------------
b|--b15b13r-------15-17---15-15------15--17----------------------------
g|---------------------------------------------------------------------
d|---------------------------------------------------------------------
a|---------------------------------------------------------------------
e|---------------------------------------------------------------------

e|---15-17---15--17----15--12------------------------------------------
b|---------------------------------------15-14-13-14--14b5-------------
g|---------------------------------------------------------------------
d|---------------------------------------------------------------------
a|---------------------------------------------------------------------
e|---------------------------------------------------------------------



e|-------------------------------------------------5h8p5n8-------------
b|----10v---10-8-5----7-5--8-10-10-13v---------------------------------
g|----------------------8----------------------------------------------
d|---------------------------------------------------------------------
a|---------------------------------------------------------------------
e|---------------------------------------------------------------------


e|--5-8-5853--58-58-5-35--358-5-3--358 8535858-------------------------
b|---------------------------------------------------------------------
g|---------------------------------------------------------------------
d|---------------------------------------------------------------------
a|---------------------------------------------------------------------
e|---------------------------------------------------------------------


e|--10-8-10------------------------------------------------------------
b|---------------------------------21-22-22-22----19-18--17------------
g|---------------19-21h21----------------------------------------------
d|---------------------------------------------------------------------
a|---------------------------------------------------------------------
e|---------------------------------------------------------------------


e|---------------------------------------------------------------------
b|---------------------19----------------------------------------------
g|-20-19-17-b18--------------------------------------------------------
d|-------------------------17-19-18------------------------------------
a|---------------------------------------------------------------------
e|---------------------------------------------------------------------


Rhythm guitars
 Intro
|--2---5---2------------|
|--3---3---3------------|
|--2---2---2------------|
|--0---0---0------------|
|-----------------------|
|-----------------------|

 verse figure
|--2--------------------|
|--3-----2--22--2h32----|
|--2-----2--22--2--2----|
|--0-----2--22--2h42----|
|----3b--0--00--0--0----|
|-----------------------|
 
 Pre-Chorus          
|----2-----------3------|
|----3--2---9\---3------|
|-1--2--2---9\---0------|
|-2--0--2---9\---0------|
|-2-----0---7\---2------|
|-0--------------3------|
 
 Chorus
|--------------------------------3---2---|
|--------------2---------2-------3---3---|
|--7-7--9-9-9--2---7--9--2-------0---2---|
|--7-7--9-9-9--2---7--9--2-------0---0---|
|--5-5--7-7-7--0---5--7--0-...---2-------|
|--------------------------------3-------|
 
 Solo (same as verse)

 Bridge
|-----2---------2---------2-------3------|
|-----3--2------3--2------3--2----3------|
|--1--2--2---1--2--2---1--2--2----0------|
|--2--0--2---2--0--2---2--0--2----0------|
|--2-----0---2-----0---2-----0----2------|
|--0---------0---------0----------3------|

 Chorus

 Outro (same as verse)

 Henrik B.
15.PD 31 Jan 2005 10:49

All Gods People chords.txt

ALL God's People


          D      C7   D
So all you people give freely

Gm6/D Dm        C7   Bb/C F
Make  welcome inside your homes

C#dim         Dm/F   C#dim Dm     C#dim
Thank God you people give  freely

      F/A       Bb          F      A7/C#       D
Don't turn your back on the lesson      of the Lord

C7          D              Gm6/D Dm       C7    Bb/C F
All prime ministers (yeah) and   majesty around the  world

Eb/F Bb/F Eb/F Bb   A7b9           Dm  Dm9maj7  Dm7b9
O -  pen  your eyes look touch and feel

    D6no3     Bb                    F/A
Rule with your heart (rule with your heart )

Eb/G                        C7/E           Dm
(Live with your conscience) live with your conscience

    G9                                   C11
And love, love and be, love, love and be free

                                        F      Bb/F   F   C/F   F   Bb/F   F   C/F  
We're all God's people (we're all God's people)

          F               Bb/F            F           C/F
Gotta face up, better grow up, gotta stand tall and be strong

          F               Bb/F   F   C/F
Gotta face up, better grow up

          F               Bb/F            F           C/F
Gotta face up, better grow up, gotta stand tall and be strong

          F               Bb/F  F    
Gotta face up, better grow up

C/F             F      Bb/F   F   C/F   F   Bb/F   F  C/F
We're all God's people            ah     yeah   yeah

F   C/F   F6no3   C/F   F   C/E   A   D



G   C/G  G  C/G  G                                                C/G  G          
  Yes.....,         yeah - yes there was this magic light

            C/G   G
I said to myself...  

                    Bbm7                       Eb/Bb  Bb7
I'd better go to bed    and have an early night

                                        A7    A7/C#   A7/E
Then I then I then I then I went into a dream

D   C7/D   D   Gm6/D   Dm   C   Bb/C   F   Eb/F   Bb   A7b9   Dm   A/D   Amb5/D   D6no3

Bb             F     Eb/G    C7/E      Eb   E         E6   Emaj7   E   D/E
Rule with your heart     and live with your conscience

E11             A      Gmaj7/A  A
We're all God's people give     freely (yeah)

G9   Am        G7   F/G  C
Make welcome inside your homes

Bb/C      F         E7   E7b9 E7   A        A5/G#  A5/F#  A5/C#  A5/G  A5/C  A5
Let us be thankful, He's so   in - credible


We're all God's people, We're all God's people

We're all God's, We're all God's, We're all God's, We're all God's




Transcribed by Erik S.
16.PD 10 Feb 2005 12:22

My Melancholy Blues

Words and music by Freddie Mercury

Transcribed by Bil Irving and PD.

Key:  Eb Major


Eb Bb

Cm
Another party's over

Gm
And I'm left cold sober

D/F#             Fm6no5        Gbdim7 Gbhalfdim
My baby left me  for somebody  new

Fm
I don't want to talk about it

Abm
Want to forget about it wanna

Eb/G               Ebm/Gb
Be intoxicated with that

Bb7sus4/F  Bb1
Special brew      So come and


Eb        G     G7
get me    Let me

Ab             Abm
get in that sinking feeling

Eb6/G        Gbdim7          Fm7
that says my heart is on an all-time low

Ddim7
So

Eb
Don't expect me

G7
To behave perfectly

Ab                Abm
And wear that sunny smile

Eb6/G         Gbdim7
My guess is I'm in for a

Fm7
cloudy and overcast

Gbdim7
Don't try and stop me cos I'm

Eb/G             Edim7          Fm    FmM7  Fm7
heading for that stormy weather soon

Ab
I'm causing a mild sensation

Abm
With this new occupation

Gm7               Cm
I'm permenantly glued to

Gm7                Cm                 Fm7
this extraordinary mood.  So now move o-ver

Gbdim7
let me take over    with my

Fm7   Gbdim      Abm7    Bb7         Eb
Mel - an - chol - y      Blues

17.andilek-filipek 19 Feb 2005 22:16
Hi, PD and everybody. Remember me? andilek-filipek@seznam.cz :-)) Great work those transcriptions, especially The Golden Boy and All God´s People. Thanks, Erik. I´d like to ask PD why don´t You add those chords into the chords archive here at Queen - The Royal Legend? thanks
Cheers everybody and Keep Yourself Alive! :)
18.LG 20 Feb 2005 19:37
Because I am busy :-)
19.andilek-filipek 21 Feb 2005 10:21
LG: because you´re lazy :-))))
20.woody 03 Mar 2005 19:53

"The Prophet's Song"

All guitars in drop D tuning (DADGBE)

         -------------------------Intro------------------------------

|------------1-----------------------------------1----|
|--------1-------3--------------------------1---------|
|--------3-------2--------------------------3---------|
|--------3-------0--------------------------3---------|
|-----------------------------------------------------|
|-0---------------------------------------------------|
|            Gt. II(possibly the koto)
|            |-----------------13------|--------13----|
|            |--------------------15---|---11---------|
|            |------------14-15--------|---10---------|
|            |---12-14-15--------------|---12---------|
|            |-------------------------|--------------|
|            |-------------------------|--------------|


|----------1----------------------|---------1----|
|--------3---3--------------------|------1-------|
|------2-------2------------------|------3-------|
|----0-----------0---0-------12---|------3-------|
|------------------0---0--0-------|--------------|
|-0----------------------3-3-0----|--------------|
                     l.g:   p.m.
                          e|-10

|-1------0-----------------------------------5------|
|-3------1-------3---------------1h3-3p1-3---8------|
|-2------0-------3---0---2-------0h2-2p0-2---7------|
|-0----------0---3-------0-------0------------------|
|----------------1---1h3----------------------------|
|----0-----------------------0----------------------|
|                                   definately koto
|---------------------1013-------------0-----5-|-------------------------17-|
|-------------------11--15-----------6---------|----------------15-17-18----|
|-------------------10--14---------------7-----|----------14-15-------------|
|-------------------12--15---------------------|-12-14-15-------------------|
|----------------------------------------------|----------------------------|
|----------------------------------------------|----------------------------|

         --------------------------Chorus--------------------------

Oh oh...
|-1-------0---------------1--------------------------------0--|
|-3-------1-------1h3-3p1-3-------1h3-3p1-3---3p1-3--(1)---1--|
|-2-------0-------0h2-2p0-2-------0h2-2p0-2---2p0-2---0----0--|
|-0-----------0---0-------0-------0-------0---0---0---2----2--|
|-----------------0---------------0-------------------3----3--|
|-----0-----------------------0-------------------------------|
|guitar right                                                 |
|-------------------------------------------------------------|
|-6-------5-------(h7)------------6---6p5-6---6p5-6---5---5---|
|-7-------5-------5h7-7p5-7-------7---7p5-7---7p5-7---5---5---|
|-7-------5-------5h7-7p5-7-------7-------7-------7---5---5---|
|-----5------5----5---5-----------------------------------3---|
|-----------------------------0-------------------------------|
|guitar left                                                  |
|-------------------------------------------------------------|
|---------6---------------6---------------------------5---5---|
|---------7-------5h7-7p5-7-------5h7-7p5-7---7p5-7---5---5---|
|---------7-------5h7-7p5-7-------5h7-7p5-7---7p5-7---5---5---|
|---------------------------------------------------------3---|
|-----------------------------0-------------------------------|


|-1-------0-----------------------------------0---|
|-1-------1-------3---------------1h3-3p1-3---3---|
|-2-------0-------3---0---2-------0h2-2p0-2---3---|
|-3-------2-------3-------0-------0---------------|
|-0-------3-------1---1h3-------------------------|
|-----------------------------0-------------------|
|guitar right
|-------------------------------------------------|
|-----------------3---3---3-------------------3---|
|-----------------3---3---2-------5h7-7p5-7---3---|
|-3-------5-------3---3---3-------5h7-7p5-7---3---|
|---------------------------------5-----------1---|
|-------------------------------------------------|
|guitar left
|-------------------------------------------------|
|-1-------5-------3---3---3-------------------3---|
|-2-------5-------3---3---2-------5h7-7p5-7---3---|
|-3-------5-------3---3---3-------5h7-7p5-7---3---|
|-0-------------------------------5---5-------1---|
|-------------------------------------------------|

         -----------------------Pre-Verse---------------------------

rythm guitars:
0:51
two gtrs                     r. gtr      l. gtr.
|----------------------------(5)---------(5)---------------|
|(2)--------------------------5-----------5----------------|
|-2---------------------------2-let ring--2-let ring-------|
|-2---------------------------2-----------2-------2----2---|
|-0---0---0---0---0---0---0---0---0---0---0---*------------|
|----------------------------------------------------------|
|'Violin:' (one guitar)
|------------------------------------------------------------|
|------------------------------------------------------------|
|-5v--5-4h5p4--5p4p2-2v---------0-2--0-----------------------|
|-----------------------------2--------2p0-----------scratch-|
|------------------------------------------3---5p3\2-2--0xx--|
|------------------------------------------------------------|

Alternative arrangement for 'violin':

|------------------------------------------------------------------------|
|------------------------------------------------------------------------|
|--9----9h10p9-----7---7h9p7---h9p7-5-----5-4-5ph------------------------|
|-10---10h12p10----9---9h10p9-------7-------5-7----7--7--7---------------|
|-----------------------------------------7--------7--5--3---5p3\2---0---|
|------------------------------------------------------------------------| PD

         ------------------------Verse 1----------------------------

I dreamed...
|-------------------------------------------------------------------|
|---------------------------------------------1------3--------------|
|-2------------------------------------2------0------2---0---2------|
|-2-------5---2---3---2---3---5---2----2------2------0---0---2------|
|-----0-0-----0---0---0---0---0---0----0------3----------2---0------|
|-------------------------------------------------------------------|
|'Violin:'
A|--0v-|                                          G|-0___h<4>------|


|-------------------------------------------------------------|
|---------------------------------------------------------3---|
|-2---------------7-----------7---9-----------9-------2---2---|
|-2---2---2---2---7---7---7---7---9---9---9---9-----2---------|
|-0---0---0---0---5---5---5---5---7---7---7---7---0-----------|
|-------------------------------------------------------------|

|-----------------------------------------------------------|
|----------------------------------------------3---3---3----|
|-2-----------------------9\-----2------0------3---3---2----|
|-2---2---5---7---7---7---7\-----2------2------0---0---0----|
|-0---0---0---0---0---0---0------0------3-------------------|
|-----------------------------------------------------------|
| fade in
|----15___________vibrato______________________--------|
|------------------------------------------------------|
|----<5>_____________"_________________________--------|
|------------------------------------------------------|
|------------------------------------------------------|
|------------------------------------------------------|

1'21"
|----------------------------------|
|----------------------------------|
|----------------------------------|
|-2-----------------------------7\-|
|-0---1---2---3---4---5---6---7----|
|----------------------------------|

         --------------------------Chorus--------------------------

|---------------------------------------------------------------|
|----------------------------------------------------------5----|
|---------5-----------7---5---7\-------------7-7\5-7---5---5----|
|-----0---5-----------7---5---7\-------------7-7\5-7---5---5----|
|-----0---3-----------5---3---5\----------0--5-5\3-5---3---3----|
|-0-3---------0---*---------------0---3-------------------------|

|---------------------------------------------------------------|
|---------------------------------------------------------------|
|----------5---------------2------------------------------------|
|-3--------5-------3---3-3-0----------0---0----10---------------|
|-3--------3-------1---1-3------------0---0----8----------------|
|-3-------------------------------0-3---------------9\\---------|

|---------------------------------------------------------------|
|---------------------------------------------------------------|
|---------5-----------7---5---7\-------------7-7\5-7---5---5----|
|-----0---5-----------7---5---7\-------------7-7\5-7---5---5----|
|-----0---3-----------5---3---5\----------0--5-5\3-5---3---3----|
|-0-3---------0---*---------------0---3-------------------------|

                                          ... white dove
|--------------------------------------------------|
|--------------------------------------------------|
|----------5---------------2------------------7----|
|-3--------5-------3---3-3-0----------0---0---5----|
|-3--------3-------1---1-3------------0---0---5----|
|-3-------------------------------0-3---------5----|

|------------------*--------------l.g--*-|
|----------------------------------5-----|
|-/9-------------------------------2-----|
|-/7-------2---2---2---2---2---2---2-----|
|-/7-------0-x-0-x-0---0---0---0---0---0-|
|-/7---0---------------------------------|

         ------------------------Verse 2---------------------------
(with p.m. rhythm throughout)
     
|---------------------------------------------------------|
|-----------------------------------1------3--------------|
|----------------------(2)---2------0------2---0---2------|
|-7---5--3--2--3--5--3--2----2------2------0---0---2------|
|-0---0--0--0--0--0--0--0----0------3----------2---0------|
|---------------------------------------------------------|
|
|left guitar: A (p.m.)-----|------ same as above ---------|

|-------------------------------------------------------------|
|---------------------------------------------------------3---|
|-2-----------2---7-----------7---9-----------9-------2---2---|
|-2---2---2---2---7---7---7---7---9---9---9---9-----2---------|
|-0---0---0---0---5---5---5---5---7---7---7---7---0-----------|
|-------------------------------------------------------------|

|------------------------------------------------------|
|------------------------------------------3--3---3----|
|-2-------------------9\-----2------0------3--3---2----|
|-2---2---5---7---7---7\-----2------2------0--0---0----|
|-0---0---0---0---0---0------0------3------------------|
|------------------------------------------------------|
|
|-------------------------------15---------------------------|
|--10-10--10--13--12--10------x-13-10---10---12---13----10---|
|-9----9---9--10--12---9----14-----10----9---10---12-----9---|
|-----12--10---7---7--10-----------12---10---12---14----10---|
|------------------------------------------------------------|
|------------------------------------------------------------|

2:22

|-----------------------------------|
|-2---3---3---5---5---6---6---9-10--|
|-2---3---4---5---6---7---8---9--9--|
|-2---3---5---5---7---7---9---9-10--|
|-0---1---2---3---4---5---6---7-12--|
|-----------------------------------|

         ------------------------Half Chorus-------------------------

|---------------------------------------------------------------|
|----------------------------------------------------------5----|
|---------5-----------7---5---7\-------------7-7\5-7---5---5----|
|-----0---5-----------7---5---7\-------------7-7\5-7---5---5----|
|-----0---3-----------5---3---5\----------0--5-5\3-5---3---3----|
|-0-3---------0---*---------------0---3-------------------------|

|---------------------------------------------------|
|-----------------------------------------3---------|
|----------5---------------2----------2---2---------|
|-3--------5-------3---3-3-0----------0---0----4----|
|-3--------3-------1---1-3------------0--------4----|
|-3-------------------------------0-3----------4----|

Guitar Harmony:
|-5-4-5-13-14---14--|
|-7-6-7-12-10---14--|
|-6-5-6-13-11---14--|
|-------------------|
|-------------------|
|-------------------|

         -------------------------Bridge 1--------------------------

|-1---------------|-1-1-1-1---1-1-1---|
|-3---1---1---1-----1-1-1-1---1-1-1---|
|-2---0---3---2-----3-3-3-3---2-2-2---|
|-0---2---3---3---3---------3---------|
|-----3-------------------------------|
|-----------------|-------------------|

D5 G5 D5 (C5)

         -------------------------Bridge 2---------------------------

2:56
This part is hard to get the rhythm right so there are some beat markers.
(accent the 1st and 3rd beats)

. . . * . . . * . . . * . . . * . . . * . . . * . . . * . . . *  
|---------------------------------------------2---2---02--------|
|---------------------------------------------3---3---33--------|
5\------7--7--------------4--4----4-----------2---2---22----5---|
5\-5--5---5-5----x----4-4---4---4---44----5---0---0---00----5---|
3\-5--------5-----2---2-------0-------5-5---0-------00-----03---|
|--5--------5-----2-------------------5-----0-------------------|

. . . * . . . * . . . * . . . * . . . * . . . * . . . * . . . *...*...                        
|---------------------------------------------2---2-------------------|
|---------------------------------------------3---3-----------3______-|
|-------7--7--------------4--4----4-----------2---2--0---35---5______-|
|--5--5---5-5---------4-4---4---4---445-5-5---0---0-------5-0-5______-|
|--5--------5-----2---2-------0-------5-5-5-0---------3-----0-3______-|
|--5--------5-----2-------------------5-----0---------3---------------|


         -------------------------The Canon--------------------------

 Oh Oh,  People can you hear me?
|-------------------------------|
|----------------------------3v-|
|-3_r2----0-2---3---3---5v------|
|-------------------------------|
|-------------------------------|
|-------------------------------|

 And Now I Know And Now I Know  And Now I Know  And Now I Know
|-6---6--6--6--4---4--4--4-----------------------------------|
|----------------------------6---6---6--6--6---4---4--4--4---|
|------------------------------------------------------------|
|------------------------------------------------------------|
|------------------------------------------------------------|
|------------------------------------------------------------|

 That You Can Hear Me
|------------------------|
|-2----4---2----1v-------|
|------------------2b3vv-|
|------------------------|
|------------------------|
|------------------------|

 And Now I Know, Now I Know,  Now I Know,  Now I Know,  Now I Know,  Now I Know
|-----------------------------7---7--7p6---7---7--7p6----------------------------|
|-8--8---8--8p7--8---8--8p7------------------------------------------------------|
|-------------------------------------------------------8---8--8p6---------------|
|--------------------------------------------------------------------3---3--3p1--|
|--------------------------------------------------------------------------------|
|--------------------------------------------------------------------------------|

 Now I Know, Now I Know,  Now I Know,  
|------------------------------------|
|------------4---4--3b4---7---7-7p4--|
|-4--4--4p2--------------------------|
|------------------------------------|
|------------------------------------|
|------------------------------------|

  The Earth Will Shake in two will break  The Earth Will Shake in two will break  
|-6---6-----6-----5/2_/1----------------------------------------------------------|?
|-------------------------6---5----5/3----3---3-----3----3/2----------------------|?
|---------------------------------------------------------------6--6---4__/-1brv--|?
|---------------------------------------------------------------------------------|?
|---------------------------------------------------------------------------------|?
|---------------------------------------------------------------------------------|?

Bbm              Bbm/C  Bbm/B   Bbm    Bbm/G# Bbm/F# Bbm/F  Bbm/E
Death All Around Around Around  Around Around Around Around Around

Bsus4                               B           enter C#                        
Now I Know, Now I Know, Now I Know, Now I Know, Now I Know, Now I Know, Now I Know,

enter F#/E /F         B6                    Bsus4/A >Bm
Now I Know Now I Know Now I Know Now I Know Now    I Know

Bm7>B7sus2 B7sus2>B6sus2 B6sus2>Bbm7 Bbm7>G#
(in between each fall there is a fall note by note from C# to G#)
wo-o-o-o-o-o-o-o-o-o-o-o-o-o-o-o-o-oh

Listen to the wise..                         ... man
g|-2-0-2--0---2b--2-1-2--1---2b--------------...-6bv-|
D|---------------------------...5-3-5--3---5b...-----|

 laa laa, la la la la laa laa, la la la la laa laa
|-1---1---10--8--6--5--1---1----10--8--6--5--1---1---|
|-3---3---11-10--8--6--3---3----11--10-8--6--3---3---|
|-3---3---10-10--7--7--3---3----10--10-7--7--2---2---|
|----------------------------------------------------|
|----------------------------------------------------|
|----------------------------------------------------|

  la la la la laa laa,  la la la la laa laa,  la la la la laa laa
|-10--8--6--5--1---1----10--8--6--5--3---3----10--8--6--5--1---1-|
|-11-10--8--6--3---3----11-10--8--6--3---3----11-10--8--6--3---3-|
|-10-10--7--7--3---3----10-10--7--7--3---3----10-10--7--7--3---3-|
|----------------------------------------------------------------|
|----------------------------------------------------------------|
|----------------------------------------------------------------|
 
  la la la la laa laa,  la la laa laa,  la la laa laa
|---------------------------------------------------------|
|-11-10--8--6--4---4----13--8--4---4----13--8--3----3-----|
|-12-10--7--5--3---3----15-12--3---3----15-12--3----3-----|
|-12-12--8--7--5---5----15-12--5---5----15-12--5----5-----|
|---------------------------------------------------------|
|---------------------------------------------------------|

  la la come here, Oi you come here, Oi  you come here, Oi you
|-10-10---6---5----10--10--6----5----10--10--6----5-----10-10--|
|-13-11---8---7----13--11--6----6----13--11--5----5-----13-11--|
|-12-10---7---7----12--10--7----5----10--10--3----3-----9--9---|
|--------------------------------------------------------------|
|--------------------------------------------------------------|
|--------------------------------------------------------------|

  Ah  a-ah ah a-ah listen to the mad...  man
|-3---3-6--6--6-11------------------...--10---|
|-4---4-8--8--8-11------------------...--10---|
|-3---3-8--8--8-12------------------...--12---|
|------------------5--3---5--3----5-...-------|
|------------------5--3---5--3----5-...-------|
|-----------------------------------...-------|

         --------------------------Reprise---------------------------

5:51
delay on
|----------------------------------|
|----------------------------------|
|-------7---3------7---4-----------|
|-5-----7---3------7---4---6---3---|
|-5-----5---1------5---2---6---3---|
|-5------------------------6---3-0-|delay off


         ---------------------------Solo 1---------------------------

|-----------------*----------------*-----------------------*---------------|----|
|--------------------------------------------------------------------------|----|
|--------------------------------------------------------------------------|-0/-|
|---2---2---2-0-2---2---2----2-0-2-----10-8--10---10-10-10-7-7-5-7---7-5-7-|-/0-|
|--2--0----2---2-2-2--02-2--22-0-2-1010---81010---10-10-10-7-7-5-7---7-5-7-|----|
|-2--0-2-----0----2--0------2-----/10--------10---10-10-10-7-7-5-7---7-5-7-|----|


Guitar harmonies:
5:58
|------------------------5b7--------------------------------------------------------|
|-7b8--------------------7b8---------5-3-----------3b5____-5_r3_b5---5-3-5---8---5--|
|-7b9--------------------7b9-----4-3-------------5-3b5____-5_r3_b5---6-4-6---4---6--|
|-7b9--(-----0-2---------7b9--)----------7-5---5---3b5____-5_r3_b5---7-5-7---5---7--|
|------(0-2-------------------)--------------3--------------------------------------|
|------(---------2-4-2-0-0---2)-----------------------------------------------------|

|--------------------------------------------------------------------------|
|-7b8-----------------7b8---8-7-8-10-12--15b17--15b17---8-10-8-10---8b10---|
|-7b9-----------------7b9rb-9-8-9-11-12--14b16--14b16---7--9-7--9---7b9----|
|-7b9--(--------2--)--7b9---9-8-5-13-14--16b17--16b17---9-11-9-11---9b11---|
|------(0-2---2-...)-------------------------------------------------------|
|------(----2------)-------------------------------------------------------|

|-0--3------0--------0--------0---------0-...-15v--17v-----b19v---|
|-------8-------10-------12------------15-----12v--14v-(12)-8v----|
|-------9--------9-------12------------16-------------------------|
|-------9-------11-------14-------19------------------------------|
|-----------------------------------------------------------------|
|-----------------------------------------------------------------|

Solo Riff
|---------------------------------------------------------------------------------------------|
|---------------------------------------------------------------------------------------------|
|-------------2-----------2-----------------2-----------2------------------2-----------2------|
|---------2---2---*---2-------2---------2---2---*---2-------2----------2---2-------2-------5--|
|-----2---2---0-----3---------2-------2-2---0---*-3---------2--------2-2---0---0-3---------5--|
|-2-5-----2-------------------2---2-5---2-------------------2----2-5---2-------------------5--|

Solo (wah)
|-12---------------------------------12------------------------------------------------|
|-----15--12-----------------------------15--b17_r15--b17--15p12h15p12--*--------------|
|--------------b15--14--12--14--b16----------------------------------------15--14--12--|
|--------------------------------------------------------------------------------------|
|--------------------------------------------------------------------------------------|
|--------------------------------------------------------------------------------------|

|-----12--15--b17vr15----b19_r17--15------------------------15--------------|
|-12----------------------------------17b20v----15--16--17------17b20r17----|
|---------------------------------------------------------------------------|
|---------------------------------------------------------------------------|
|---------------------------------------------------------------------------|
|---------------------------------------------------------------------------|

|---------------------------------------------------------20b22v--------------|
|-b20_r19_p17------17--b22--b22_r20--17-------17--17--17-------------h14\-----|
|--------------20------------------------19b----------------------------------|
|-----------------------------------------------------------------------------|
|-----------------------------------------------------------------------------|
|-----------------------------------------------------------------------------|


         --------------------------Solo 2---------------------------

|--------------------------------------------------------------|
|--------------------------------------------------------------|
|---------5-----------7---5---7------------7p5-7p5-7---2---2---|
|-----0---5-----------7---5---7--------0---7p5-7p5-7---2---2---|
|-----0---3-------*---5---3---5--------0---5---5---5---0---0---|
|-0-3---------0-------------------0-3b-------------------------|

|-20b22v--b22r20-17--------------_____-------10---------------------------------|
|------------------b22r20-b21-20-21r20p18-------13------------------------------|
|--------------------------------------------------12-10b-12-10-----------------|
|---------------------------------------------------------------12--------------|
|--------------------------------------------------------------------12--12v\3--|
|-------------------------------------------------------------------------------|
|right guitars arranged for one
|-17---12__b14-12b14r12b14--------------------------14-12-14-12-14---12--12-----|
|-19---13__b15-13b15r13b15--------------------------15-13-15-13-15---14--14-----|
|-19---12__b14-12b14r12b14--------------------------14-15-14-15-14---14--14-----|
|-------------------------------------------------------------------------------|
|-------------------------------------------------------------------------------|
|-------------------------------------------------------------------------------|
|left guitars...
|---------------------------------14-12-14-12-14--------------------------------|
|---------------------------------15-13-15-13-15----------------------5---5-----|
|---------------------------------14-12-14-12-14----------------------6---6-----|
|---------------------------------------------------------------------7---7-----|
|-------------------------------------------------------------------------------|
|-------------------------------------------------------------------------------|

|rhythm guitars:
|
|F5  A#5 C5
|A#5  F5 G5
|
|other 3 guitars in harmony:
|right
|-13---10-12v----13---17-19v--|
|-13---11-13v----15---18-20v--|
|-14---10-12v----15---17-19v--|
|-----------------------------|
|-----------------------------|
|-----------------------------|
|left
|---------------------|
|-6-----6--5------6---|
|-5-----3--5------7---|
|-7-----3--5------8---|
|---------------------|
|---------------------|

|----------------------------------|
|----------------------------------|
|-------------------------------9v-|
|-2---3---5---5---7---7---9---9-7\-|
|-0---1---2---3---4---5---6---7----|
|----------------------------------|


Chorus riff...
(ending in F)

         --------------------------Solo 3----------------------------

...Chorus riff (continued - ending in Dsus4 [55578x])
|-----------------------------------------------13-15-b17-15-13v---------|
|-13b15v---b15_r13-10-15b18----b18_r15-13-14-15--x-----------------15b\3-|
|------------------------------------------------------------------------|
|------------------------------------------------------------------------|
|------------------------------------------------------------------------|
|------------------------------------------------------------------------|

         ------------------------Pre-Outro---------------------------

clean guitars
|-10p7-8p7-8p7---10p7-7-8p7-8p7---7-|
|--------------8----------------8---|
|-------------<5>--------------<5>--|
|-----------------------------------|
|-----------------------------------|
|-----------------------------------|
|                                   |
|-----------------------------------|
|-10p7-8p7-8p7---10p7-7-8p7-8p7---7-|
|--------------7----------------7---|
|-----------------------------------|
|-----------------------------------|
|-----------------------------------|Repeat

x133x0

         ---------------------------Outro----------------------------

|-----1------------------------------------1----------------------------------------|
|-1-------3-------------------------------3-3---------------------------------------|
|-3-------2------------------------------2---2--------------------------------------|
|-3-------0----------------------------0------0--0------------2h3p2p0----0----------|
|----------------------------------------------0---0---0-------------3p0---3/5v\\---|
|----------------------------------0-----------------3---3-0---------------------0--|
|left gtr.
|---------22-18-17--------------------|
|------------------18-17--------------|
|------------------------19-15-14-----|
|---------------------------------12--|
|-------------------------------------|
|-------------------------------------|
|                         right gtr.
|                         |-----------|
|                         |-11-10-----|
|                         |-----------|
|                         |-------12--|
|                         |-----------|
|                         |-----------|


|-----------------1-------0-------5----------10---|
|-1---------------3-------1-------6---6-8---10----|
|-3---------------2-------0-------7--------10-----|
|-3---------------0-------0-------0---8-----------|
|-----------------------------------------12------|
|---------------------0-------0-------------------|
|two gtrs.: r.g. >1 octave> l.g.| left guitar     |
|-----------13--|               |------12----13---|
|------11-------|               |---11------15----|
|---------------|               |--10------14-----|
|---------------|               |-12--------------|
|---------------|               |-----------------|
|---------------|               |-----------------|


|-5-------3---------0---0-1---------1------------|
|-----6-------5---3---3---3--------3-3-----------|
|-----7-------5-------0---2-------2---2----------|
|-----7-------5-----------0------0-----0----<5>--|
|-5-------3-------1---3---------0-----------<5>--|
|------------------------------0--------0--------|


|-1-------0--------------12-13------6-------5-------3-------1-------0------3----|
|-3-------1-------3---11----10--------------------------1-------0---------------|
|-2-------0-------3---10----10----------5-------5-----------------------0-----0-|
|-0-----------0---3---12----10------5-------3-------2-------0-------------------|
|-----------------1------------12----------------------------------3------------|
|-----0-------------------------------------------------------------------------|
|                Left gtr.
|                |------12--13-|
|                |---11-----15-|
|                |--10------14-|
|                |-12----------|
|                |-------------|
|                |-------------|


|-----0-----------3--------0-----------0------<12>---|
|-6-----/-3---------------5-5--------5---------------|
|-------------0----------0---0-----0-----5----<12>---|
|-----------------------5-----5--5----------10-------|
|-5-----/-2------------3-------3---------------------|
|----------------------------------------------------|

Compiled e.t.c. by Woody '05.
21.woody 08 May 2005 16:43
OK!!! After many corerctions recently, I have given up. Above is the final piece of The Prophet's Song, (the canon has been half transcribed/half scaled - you should be able to work it out). And some guitar arrangements added...Enjoy!!
22.Erik 18 May 2005 13:10

LA Japonaise


Bm                      A6
Subalashii asaga akelu, yoakega yobikakelu

Abdim           Dm6/A      G       D
Kokorono izumiga wakidelu, yumeno yo



D              
I feel the power of a stranger inside me

  D+5
A force of magic surrounds me    

     D6              D          G  Em7  A
This fountain within me is overflo.....wing



D    A         G/A A
Peaceful and invi..ting

D     A       Gm6/A  A
Beautiful and enti..cing

  D     C#+5/D  D     Bb6/D
Yoake kisetsu   yume kibo

A       D/A          A7
Umito hikariga yondeilu



D                        Bm                  F#
Rising sun will bless my morning with a smile

        G             Em
A magic pearl from the seas

G                Bm
Born in a willow breeze

D                        Bm               F#
Loyal friend my guardian angel in the sky
 
                 Bm                Em
You've served me well all these years

                   D                      A
Greeting with both hands trusting with no fears

         
Till the end



D                Bm          F#
Toikuino anatani miselalete

          Bm      Em       D      
Amalinimo utsukushii yumenoyo

        A      Bm
Itsumademo  ii.....

Bm6             Bm  Bm/D  Fdim  Bb7  D



       D      C/E  F
Aino hikali kiboto yume

     Bb/F Bbsus2/F  F          Em7b5   Emb6b5    
When everything is  golden and every - thing is oh

Dm            C6/D          Dm        
Fuji no yuki, Kyoto no ame, Tokyo no yolu

    Bb/D Dm6       F/A   Dm(add4)
And everything is ah......

Gm       D7/G
Fire and beauty

   Gm          A7               D6  Bm7  Em
My only living treasure on this earth

 D    D+5    D6   D
(kibo hikali yume....)


G            Em      B
Asaga hohoemikakelu

       C       Am C         Em
Itsumo kimi dakewa kokolonotomo

G                 Em       B
Toikimino omokage shinonde

          Em      Am     G     Am  Bb
Amalinimo utsukushii yumenoyo


     Eb/Bb   Bbsus4   Bb
When every - thing is golden

    Bb6/A   Bb/A      Bb7/D   Hdim  F/A  Dsus4  Gm7
And every - thing and every - one is ah...............

  E7/G#  G#+5  C#m/G#   Abm7-5       Abm  Bm7  D6
Yoake, kisetsu, yume, kibo.........

Bm  Bm/D  Fdim   Bb7  D


D
Yoake, kisetsu, yume, kibo
Yoake, kisetsu, yume, kibo
Yoake, kisetsu, yume, kibo




Transcribed by Erik S.

Wasn't easy to find chords but now I think they are quite correct!
23.Erik 18 May 2005 13:11
Yor e-mail adress doesn't work in some reason so I put La japonaise chords straightly in that forum. :)
24.woody 31 May 2005 17:31
Sorry - I'm poorly organised - I'll post them here


In The Lap Of The Gods...Revisisted (Live at Wembley)


|--------------------|->2-------2-------5-------5----|------5-|
|---3---3---3---3----|-<3-------3-------8-------8----|------8-|
|--2-2-2-2-2-2-2-----|->2------(2)------7------------|-0/---7-|
|-0---0---0---0--...-|-(0)---------------------------|-/0-----|
|--------------------|-------------------------------|---...--|
|--------------------|-------------------------------|--------|

|-2-------22--------------------------------------5--------------|
|-3------(22)-----8-------8---------------3-------8-------8-7----|
|-2-------x-------7---------7-------------2-------7-------7---7--|
|-0---------------------------7---0-----------------------0------|
|----------------------------------------------------------------|
|----------------------------------------------------------------|

|-0----------------------------------------------|
|-0-----0-----------0---------0-----0--------0---|
|-0-------0-----------0-----0-----0-------0------|
|-2---------2-1---------2-1-----0-------2--------|
|-2-----------------------------------4----------|
|-0----------------------------------------------|

|------2-x----------------------0--|
|----3---3-------33-------33----0--|
|---2------------------------------|
|-0-----------0---------0-------2--|
|-------------------------------2--|
|-------------------------------0--|

Chorus:
|-------------2-------------------------------------|
|-2-2---2-2---3-----------------------------------2-|
|-2-2---2-2---2-----------------------------------2-|
|-2-2---2-2---0-----------------------------------2-|
|-0-0---0-0---------3---5-2-----7-----5-----75-4--0-|
|---------------------------------------------------|
                                                                         F.B.
|-------------------------------------|-------------|-------------------------|
|-------------------------------------|-------------|-----2-2---2-2---2-2..-2-|
|-------------------------------------|-0//---------|-----2-2---2-2---2-2..-2-|
|-------------------------------------|-//0-with----|-----2-2---2-2---2-2..-2-|
|-5---4---5--6/7----6---7-10------5\--|-----more----|-...-0-0---0-0---0-0..-0-|
|-------------------------------------|-2x--texture-|-------------------------|

Solo:
|----------------------------------------|
|-------------------------------------2--|
|-7v----5---7-4----b12-11-9---6--7b9--2--|
|-------------------------------------2--|
|-------------------------------------0--|
|----------------------------------------|

|------------------------------------------------------------------|
|-7b--5v--7v-8vv----7---8-(10)b12--12r11p10-8r7p5-3h5---15b17v--15-|
|------------------------------------------------------------------|
|------------------------------------------------------------------|
|------------------------------------------------------------------|
|------------------------------------------------------------------|

Woody '05
25.woody 31 May 2005 17:35

Jealousy Intro:

  *   .   .   .   *   .   .   .   *   .   .   .   *   .   .   .   *   .   .   .    
|-6---3-6-5-----5-3---3-5-3-8-----------------------------0---------------1-----|
|---3-----6---6---6---5---5--8------------3-------------------------------------|
|-----------5-------5---------9---3---23----------0---23----------0---23--0-----|
|-5----------------------------10-------------78--------------78----------------|
|-----------------3-----------------------------------01------------------------|
|-3-------------------------------3(3)---------6-53------------6653-------------|
                                |Hairfred guitar:
                                |-----------------------------------------------|
                                |-----------------------------------------------|
                                |-----------------------------------------------|
                                |-8v--78/-12--78--5v--78/-14--78--5v--78/-15----|
                                |-----------------------------------------------|
                                |-----------------------------------------------|

  *   .  
|-------3-| (ever so slightly off-beat)
|-5-6-5---|
|---------|
|---------|
|---------|
|---------|

Woody '05
26.woody 31 May 2005 17:37

White Queen:

Intro
(with trem. bar)
  G       G  D    D  Em   Em D
|-19----|-19\17-|-17\15-|-15\14--|
|-15----|-15----|-15\12-|-12\10--|
|-12----|-12\11-|-11\9--|--9\7---|
|-------|-------|-------|--------|
|-------|-------|-------|--------|
|-------|-left--|-right-|-left---|

                           Chorus shaped Intro

                           G D     D Em    G D     D Em    G D     D Em    G D      
  Free                     * . . . * . . . * . . . * . . . * . . . * . . . * . . .
|-------------0------2---|-3-2-----2-----------------0---------------0-------2----|
|---------3---------3----|-3-3-----3-------0-3-----3-0---------------0-----0-3----|
|-------0----------2-----|---------2-------0-2-----2-0-------------2-0-----0-2----|
|-----0-----------0------|-0-0-----0-2-----0-0-----0-------5\0-----2-2-----0------|
|-0h2--------------------|-----------2---------------------5\0-----2-2-----2------|
|------------------------|-----------0---------------------3----------------------|

Verse 1

  Am              Am/G            Fmaj7           F7      E  
  *   .   .   .   *   .   .   .   *   .   .   .   *   .   .   .  
|-----------------------------------------------------------------|----|
|-----1---0-----------1---0-------------------------1-0-----------|----|
|-------------2---------------2-------2---2---2---------------2---|-0/-|
|---2---2---2---2---2---2---2---2---2---0-------1-------2---2---2-|-/0-|
|-0-----------------------------------------3---------------------|----|
|-----------------3---------------1---------------1-------0-------| 2X |

Bridge 1

  Am      G       C   G   Am      Am      D       Am      D       A
  * . . . * . . . * . . . * . . . * . . . * . . . * . . . * . . . * . . .
|-----------------0-------------5-----5-----------------------------------|
|-------------0---1---3-------5-----5---5-----3-------1-------3-----------|
|-----2-----------0---0-----5---------------2---2-----------2---2-----2---|
|---2---2---0---0-2---0---7---------------0---------2---2-0---------2---2-|
|-0---------------3---2-----------7---------------0---------------0-------|
|---------3---------------------------------------------------------------|

Chorus
                          "               "                  " = Esus4
  G D     D Em    G D     E Em    G D     E Em    G D    
  * . . . * . . . * . . . * . . . * . . . * . . . * . . .
|-3-2-----2-0-----3-2-----0-0-----3-2-----0-0-----3-2----|
|-3-3-----3-0-----3-3-----0-0-----3-3-----0-0-----3-3----|
|-4-2-----2-0-----4-2-----2-0-----4-2-----2-0-----4-2----|
|-5-0-----0-2-----5-0-----2-2-----5-0-----4-2-----5-0----|
|-----------------------------------------0-2------------|
|-----------------------------------------0-0------------|

Verse 2

  Am              Am/G            Fmaj7           F7      E  
  *   .   .   .   *   .   .   .   *   .   .   .   *   .   .   .
|-----------------------------------------------------------------|----|
|-----1---0-----------1---0---------------0---------1-0-----------|----|
|-------------2---------------2-------2-------2---------------2---|-0/-|
|---2---2---2---2---2---2---2---2---2---0-------1-------2---2---2-|-/0-|
|-0-----------------------------------------3---------------------|----|
|-----------------3---------------1---------------1-------0-------| 2X |

Bridge 2

  Am    Dm/E  A7  Dm      F7      Bb F/A  Gm Dm Esus4 E  
  * . . . * . . . * . . . * . . . * . . . * . . . * . . .  
|-------------0-------1-------1-------------------0---0---|
|---------3---2---------------------3-----3-------0---0---|
|-2---2---2-----2---2---2---2---2-------2---3---2-2v--1---|
|---2---2---2-----0-------1-----------3-------0---2---2---|
|-0-------0-----------------------1---------------2---2---|
|-----------------------------------------3-------0---0---|

Solo 1

Chords
  Am              Am/G            Fmaj7           F7      E  
  * . . . * . . . * . . . * . . . * . . . * . . . * . . . * . . .
|--------------------___--------------------------------------0---|----|
|----0h1------0------0h1------0-------1-------0-------1-----------|----|
|-2-----2---2--2-2------2---2--22---2---2---2--222--2---2---2---2-|-0/-|
|---2------2-2--2---2----2------------------------1-------2-------|-/0-|
|---------0-------------------------------------------------------|----|
|-----------------3-------3-------1-------1-----------------------|-..-|

Solo
 
|-------------------------------------------------------------|
|-------------------------------------------------------------|
|-------------------------------------------------------------|
|-7----11r9-7-7-7-7vvv---10r9-7-9-10-12p10-9-10-9hp---9-7-----|
|---------------------------------------------------------7v--|
|-------------------------------------------------------------|
 
|---------------------------------------------------------|
|-----------------------------------------___-------------|
|-7-b8-b9-9r7---7-5hp---4-5-4hp---5p4-5-7-9r7p5---7-5-7/9-|
|---------------------------------------------------------|
|---------------------------------------------------------|
|---------------------------------------------------------|

|------------------------------------___________-------___________-------|
|---------8---8-10-8/10---10/12---12-12h13p12p10-12-13-12h13p12p10-12-10-|
|-9/11-11----------------------------------------------------------------|
|------------------------------------------------------------------------|
|------------------------------------------------------------------------|
|------------------------------------------------------------------------|

|-----------------------------------------------------------------|
|-------------------x/--------------------------------------------|
|-9p7(\5)-7p5-7p5v--x/--5-7-8-8p7-8p7-8p7p5-7p5\4-5---4-2-4-0-2...|
|-----------------------------------------------------------------|
|-----------------------------------------------------------------|
|-----------------------------------------------------------------|

Enter second guitar
 
|-12r10p8-7-8-7h8p7----------------------------------------------------------|
|-------------------10-------------------------------------------------------|
|----------------------9-7----------------5-7-5-5-7b9---b9-b9-b9-b9-b9r7-5-7-|
|--------------------------10p9h10-5-7---------------------------------------|
|----------------------------------------------------------------------------|
|----------------------------------------------------------------------------|

|------------------------------------------------------------------------|
|------------------------------------------------------------------------|
|--7p5-5-5-5-5\4-4-4-4\2---2---5r4p2-4p2-4-4b-b5-b5-b5-b5-b5r4p2-5r4p2---|
|------------------------------------------------------------------------|
|------------------------------------------------------------------------|
|------------------------------------------------------------------------|
 
|-----------------------------------------------------|
|-_____---_____-----_____-------_____-------_____-----|
|-5r4p2-4-5r4p2-4-5-4b5r4-2-4-5-4b5r4-2-4-5-4r5r4p2---|
|-----------------------------------------------------|
|-----------------------------------------------------|
|-----------------------------------------------------|

Half Chorus

(drive chords)
G D   D Em   G D   x Em

  *    .    .    .  *   . . . *      *     .     .     .     *     .      
|--------------------------------| |------------------------------------|
|-10---10---10-8-7---------------| |------------------------------10-12-|
|-11---11---11-7----7---2-4-2-4--| |-------------------------11-12------|
|-12---12---12---7--7---4-2-1----| |----------------11-13-14------------|
|--------------------------------| |----------12-14---------------------|
|-----------------------------0--| |-12-14-15---------------------------|

Solo 2

   C              G           F                   C
   *              *           *                   *
|-----------------------------12b13---b13__r12p10-12v---10-|
|--12b13v__r12p10-12vvv--10--------------------------------|
|----------------------------------------------------------|
|----------------------------------------------------------|
|----------------------------------------------------------|
|----------------------------------------------------------|
|Fanfare guitar arrangements (right)
|---------1----------------------------1----------0--------|
|--1------1-------0-----------1--------1----------1--------|
|--0------0-------0-----------2--------2----------0--------|
|--2-----(2)------0-----------3--------3----------2--------|
|-----------------------------3----------------------------|
|----------------------------------------------------------|
|left 2gts (not alligned, don't rely on this staff's spacing)
|--8v-----8-------7----7\5----4h5--------------------------|
|--8v----r8-------8----8\6\1--5h6------------5h6p5---------|
|--9v----r9-------7----7\5\2--5v-------------5________\3---|
|-(10)------------5----------------------------------------|
|-----------------------------------------------------8----|
|--------------------------------------------------8v---8--|

  Bb                                         Esus4         E
  *                *                         *             *  
|-----------------------------------------------------------------------------|
|-18b20v--17-15------------17b18--r17p15h17--18-17h18hp-15-17v-17h18ph..bhp..-|
|---------------17-15vv-------------------------------------------------------|
|-----------------------------------------------------------------------------|
|-----------------------------------------------------------------------------|
|-----------------------------------------------------------------------------|
|
|-------------------------(1)--------------------------------------|
|--------------------------3----------------(0)--------------------|
|-3------3-----------3-----3-----------------2----2--------1-------|
|-3------3-----------3-----3-----------------2----2--------2-------|
|-1------0------------------------------------------------(2)------|
|--------------------3---------------------------------------.....-|
|                                                    ___________
|-6v-----6v----------6v----6-----------------5-h5---p5p4h5p4h5p4-4-|
|-3v-----3v----------3b----3-----------------5--5------------------|
|-3v-----3v----------3v----3-----------------2-------------------1-|
|-3v-----3v----------3v------------------------------------------2-|
|-13-----12----------10--------------------------------------------|
|------------------------------------------------------------------|

+If you listen very carefully, a high gain 'n' high treble guitar is playing some high
pitched soft chords, they have a long sustain, I recommend that this guitar plays the
normal chords. When changing chord, slide.


Bridge 1

   Am
My Goddess Hear
 
   G
My Darkest Fear

  C     G   Am
I speak too late

D         Am
 It's for evermore
D         A
   That I wait


Ending (Same shape as chorus)

G    D
Dear Friend

  D  Em               G  D   D  Em  G  D       D  Em  G D  D E.....
|-2--0--------------------------0---3----3p2------0-----------------------0--|
|-3--0-----0--0----------3---3--0---3--3----3-----0--------3------------0----|
|-2--0-----0--0-------0--2------0---0--------2-2--0---0----2----------1------|
|-0--2-----4--4p2-0---0--0---0--2---0--0-------0--2---0-0--0--------2--------|
|----2--------------2-2-------------------------------5------4\---2----------|
|----0----------------3--2----------------------------3-2-------0------------|

Woody '05
(hitting the wall of sound, hence many mistakes)
27.woody 04 Jun 2005 20:59

Father To Son (corrected, edited)


Intro: (arranged for three guitars)

|-10---- -10---- -10---- -10-----|
|--10--- --10--- --13--- --10----|
|---12-- ---10-- ---12-- ---11---|
|----12- ----12- ----13- ----12--|
|----... ----... ----... --------|
|------- ------- ------- --------|
|
|--------------------------------|
|----------------------------...-|
|-12------10-------8------777...-|
|-12------10-------8------777...-|
|-10-------8-------6------555...-|
|--------------------------------|
|
|-10-10-10-10-10-10-10-10-10-...-|
|--------------------------------|
|--------------------------------|
|--------------------------------|
|--------------------------------|
|--------------------------------|



Verse:

C
A word in your ear,
D
From father to son.
G         Bm/F#           Em
Hear the word that I say:
C
I fought with you,
D
Fought on your side,
G       Bm/F#             E
Long before you were born.


Chorus:

G
Joyful the sound,
     C
The word goes around,
     Am             D
From father to son, to son.


Verse II:

And the voice is so clear,
Time after time it keeps
Calling you, calling you on.
Don't destroy what you see,
Your country to be,
Just keep building on the ground
That's been won.


Chorus:

Kings will be crowned
The word goes around
From father to son to son


Bridge I:

-Repeat Intro Riff-

(D)                   F
Won't you hear us sing our family song?

"Ba ba ba ba ba ba ba ba"
                 Ab5
Now we hand it on.


Solo:

E5                               D A
But I've heard it all before.
Take this letter that I give you,
Take it sonny hold it high.
|---------------------------|
|---------------------------|
|---------------------------|
|------------------------7--|
|----------5-7-----------7--|
|----5-6-7----6b-5bp0----5--|

You won't understand a word that's in it,
But you'll write it all again before you die.

|----------------------------------------------|
|----------------------------------------------|
|-------------------------------------7--------|
|-------------------------------------7-----7--|
|-7--9-10-----7--9-10-----7--9-10-----5-----7--|
|-------------------------------------------5--|
|
|----------------------------------------------|
|----------------------------------------------|
|----------------------------------------------|
|-------------------------------------7--------|
|-------------------------------------5-----7--|
|-0--2-3------0--2-3------0--2-3------------5--|


|----------------------------------------------|
|----------------------------------------------|
|-------------------------------------7--------|
|-2-2-2-0-----2-2-2-0-----2-2-2-0-----7-----7--|
|-2-2-2-2-----2-2-2-2-----2-2-2-2-----5-----7--|
|-0-0-0-3-----0-0-0-3-----0-0-0-3-----------5--|
|
|----------------------------------------------|
|----------------------------------------------|
|----------------------------------------------|
|-------------------------------------7--------|
|-------------------------------------5----7---|
|-0--2-3------0--2-3------0--2-3-----------5---|


Section of Guitar Solo:
|--------------------------------------------------------------------------------------|
|--------------------------------------------------------------------------------------|
|...12b13--11-10-----------------------------------------------------------------------|
|----------------14-12-12h13p12h13p12--------------------------------12-14-12-14-12-14-|
|-------------------------------------13h14p13h14p13--12h13p12h13p12-------------------|
|--------------------------------------------------------------------------------------|

|--------------------------------------------|
|-14b16-13-12h13p12h13p12--13-15b17----------|
|-----------------------------------17r15...-|
|--------------------------------------------|
|--------------------------------------------|
|--------------------------------------------|

Connectors:
|--------------------|-------------------| Take your pick:
|-9-------7-------5--|-9-------7-------5-...
|-9-------7-------5--|-9-------7-------5-| Artificial Harmonic
|-9-------7-------5--|-9-------7-------5-| Feedback Harmonic
|-7-------5-------3--|-7-------5-------3-| Play (x 15 17 17 17 x)
|--------------------|-------------------| Wah-wah harmonic


Verse III:

C
A word in your ear,
D
From father to son.
      G
Funny, you don't hear
Bm/F#                 Em
A single word that I say.
C
But my letter to you,
D
Will stay by your side,
          G
Thru' the years-
Bm/F#                    E
Till the loneliness is gone.


Bridge II:

G
Sing if you will.
C   G   D       Em
But the air you breathe-
  A(sus4) A
I live to give you.

C
Father to son.

|-------------|
|-------------|
|-------------|
|-------------|
|-3-2----trem-|
|-----3-5WWW3-|

Am                         G
Father to son, father to son.


Outro:

G
Joyful the sound,
C
Word goes around,
Am             D
Father to son, to son.

Kings will be crowned,
Word goes around,
Father to son, to son

4:54
|------------------------------|---------|-----------------------------------------|
|------------------------------|---------|-----------------------------------------|
|-14b-13-12--------------------|-7b10vr\-|-9b10__--10r9p7-8p7h8p7------------------|
|----------14-13p12------------|---------|-----------------------9p8p7-------------|
|------------------13p12-11-10-|---------|----------------------------987----------|
|------------------------------|---------|-------------------------------87-7p6p5--|

|--------------------------------------|--------------------------------------|
|--------------------------------------|--------------------------------------|
|-----------3h4h5-5/7-7h9-12p11--14b16-|-16r14-14p13p12----------------12b14--|
|---------35---------------------------|---------------14-13-12--13p12--------|
|----3-4h5-----------------------------|--------------------------------------|
|-3h4----------------------------------|--------------------------------------|

|---------------------|----------|-----------------------------|------------------------------|
|---------------------|----------|-----------------------------|------------------------------|
|-14b16-16r14p13p11vv-|-16b-15vv-|-14b--1312-------------------|--------------------12-12/14--|
|---------------------|----------|-----------14p13-13p12h13p12-|-12-12/14-(15)-15/17----------|
|---------------------|----------|-----------------------------|------------------------------|
|---------------------|----------|-----------------------------|------------------------------|

|-------------|--------------------|------------------------------|-----------------...
|-------------|--------------------|------------------------------|-----------------...
|-7p5h6p5h6p6-|-567--12b13r12__b15-|-16r14--13-12------12h13-15b--|--r15-13h14p13p12...
|-------------|--------------------|--------------14-12-----------|-----------------...
|-------------|--------------------|------------------------------|-----------------...
|-------------|--------------------|------------------------------|-----------------...

Woody '04
28.woody 04 Jun 2005 21:16
Just 'Some Day One Day' left for me.
29.Erik 05 Jul 2005 15:26

Going Back


  A                           D                  Dsus2      A
I think I'm going back to the things I learnt so well in my youth

  A                            D               Dsus2                     A
I think I'm returning to those days when I was young enough to know the truth
 
          F#m                  C#m
Now there are no games To only pass the time

        F#m                          A
No more colouring books No Christmas bells to chime

             D                 Dsus2       A       D                Dsus2           A
But thinking young and growing older is no sin And I can't play the game of life to win


 
A                          D                 Dsus2          A
I can recall a time When I wasn't ashamed to reach out to a friend

    A                      D             Dsus2           A
And now I think I've got A lot more than just my toys to lend

            F#m                      C#m
Now there's more to do Than watch my sailboat glide

          F#m                 A
And every day can be My magic carpet ride

    D          Dsus2                 A
And I can play hide and seek with my fears

    D            Dsus2                  A
And live my days instead of counting my years
 


A   D   Dsus2    A    A    D    Dsus2   A

          F#m                    C#m
Then everyone debates The true reality

           F#m                      A
I'd rather see the world The way it used to be

  D             Dsus2             A      D               Dsus2
A little bit of freedom's all we lack So catch me if you can

          A
I'm going back
30.PD 02 Aug 2005 19:43

Fájlnév: token.txt
Megjegyzés: 503782070-token.txt

Love Token
Brian May
Back to the Light

                                    | [00:07]       *     *     *     *     *     *     * [x2]
E-----------------------------------|-----------------------------------------------------|
B-----------------------------------|---------------3--3--3--3--3--3--3--3--3--3--3--3--3-|
G-----------------------------------|---------------2--2--2--2--2--2--2--2--2--2--2--2--2-|
D--3h5-5-3-5-3-0-0----3/5-3----3-0--|--5-5-5--5-3-0-0--0--0--0--0--0--0--0--0--0--0--0--0-|
A--3h5-5-3-5-3-0-0----3/5-3----3-0--|--5-5-5--5-3-0-0--0--0--0--0--0--0--0--0--0--0--0--0-|
D--3h5-5-3-5-3-0-0----3/5-3----3-0--|--5-5-5--5-3-0-0--0--0--0--0--0--0--0--0--0--0--0--0-|


[00:22]                                     oooh let me tell you that mama's in love
|------------------------------------------------------------------
|---------------3--3--3--3--3--3--3--3--3--3--3---------------3----
|---------------2--2--2--2--2--2--2--2--2--2--0-let ring------2----
|--5-5-5--5-3-0-0--0--0--0--0--0--0--0--0--0--0---------------0----
|--5-5-5--5-3-0-0--0--0--0--0--0--0--0--0--0--3-2-2-0-2-0-----0----
|--5-5-5--5-3-0-0--0--0--0--0--0--0--0--0--0--------------3-0-0----

papa's in love, it's such a shame they don't love each other
------------------------------------------------------------|
---------7-7--5-5--------------------------3\---------------|
---------7-7--5-5--------------------------0\trem down------|
---------7-7--5-5--------------------------0\---------------|
---------5-5--3-3-------------------------------------------|
------------------------------------------------------------|

[00:37]
|-----------------------------------------------------
|---------------3--3--3--3--3--3--3--3--3--3--3--3--3-
|---------------2--2--2--2--2--2--2--2--2--2--2--2--2-
|--5-5-5--5-3-0-0--0--0--0--0--0--0--0--0--0--0--0--0-
|--5-5-5--5-3-0-0--0--0--0--0--0--0--0--0--0--0--0--0-
|--5-5-5--5-3-0-0--0--0--0--0--0--0--0--0--0--0--0--0-

                      oooh  no                           papa's in a jam...                      
-------------------------------------------------------------
---------------3--3--3--3--3--3--3--3--3--3--3--3--3-----3-3-
---------------2--2--2--2--2--2--2--2--2--2--2--2--2-----2-2-
--5-5-5--5-3-0-0--0--0--0--0--0--0--0--0--0--0--0--0-3-3-0-0-
--5-5-5--5-3-0-0--0--0--0--0--0--0--0--0--0--0--0--0-3-3-0-0-
--5-5-5--5-3-0-0--0--0--0--0--0--0--0--0--0--0--0--0-3-3-0-0-

mama's trowing pans, the game's up its time to run for cover
-------------------------------------------------------|
---------7-7--5-5--------------------------------------|
---------7-7--5-5--------------------------------------|
---------7-7--5-5--------------------------------5---5-|
---------5-5--3-3--------------------------------5---5-|
-------------------------------------------------5---5-|

[01:00]
|----------------------------------------------------
|--------------3--3--3--3--3--3--3--3--3--3--3--3--3-
|--------------2--2--2--2--2--2--2--2--2--2--2--2--2-
|-5-5-5--5-3-0-0--0--0--0--0--0--0--0--0--0--0--0--0-
|-5-5-5--5-3-0-0--0--0--0--0--0--0--0--0--0--0--0--0-
|-5-5-5--5-3-0-0--0--0--0--0--0--0--0--0--0--0--0--0-

[01:07]
|--------------------------------------------------------------|
|--------------3--3--3--3--3--3--3--3--3--3--3--5--------------|
|--------------2--2--2--2--2--2--2--2--2--2--2--5--------------|
|-5-5-5--5-3-0-0--0--0--0--0--0--0--0--0--0--0--5---5--3--3--5-|
|-5-5-5--5-3-0-0--0--0--0--0--0--0--0--0--0--0--3---5--3--3--5-|
|-5-5-5--5-3-0-0--0--0--0--0--0--0--0--0--0--0------5--3--3--5-|
|                                                              
|--------------------------------------------------------------|
|--------------------------------------------------------------|
|--------------------------------------------------------------|
|--------------------8--7--6--5--4--3--2--1--0-----------------|
|--------------------------------------------------------------|
|--------------------------------------------------------------|


everybody cryin' but they can't stop hopin', everybody's looking for the door that's open
|------------------------------------------------------------------------------------------
|-8--------------------------6-----------6/-8------------------------------------------8---
|-7--------------------------5-----------5/-7------------------------------------------7---
|-5--------------------------3-----------3/-5--------------------------------------3-3-5---
|-5--------------------------3-----------3/-5---------------------------------0--3---3-5---
|-5--------------------------3-----------3/-5---------------------------3~--5--------3-5---


mama's making heat to keep the old fire smokin', papa's hangin' on his old love token
-------------------------------------------------------------------------------------------|
-8------------------------------------------6/8-8\--mute strings---------------------------|
-7------------nh5\trem down---5-------------5/7-7\-----------------------------------------|
-5----------------------------3-------------3/5-5\-----------------------------------------|
-5----------------------------3-------------3/5-5\-----------------------------------------|
-5----------------------------3-------------3/5-5\-----------------------------------------|

[01:30]
|---------------------------------------|
|---------------------------------------|
|--7-7-7-----7-7-5-5--------------------|
|--7-7-7-----7-7-5-5-----3/5--5-5-3-0---|
|--5-5-5-----5-5-3-3-----3/5--5-5-3-0---|
|--0-0-0-----------------3/5--5-5-3-0---|

[01:38]
    you got love but you ain't got style,      you want your freedom but in a while
|-------------------------------------------------------------------------------------
|------------6----------------------6-------------------------8----------------8------
|-3----------5------------5---------5---------5---------------7-----------7----7------
|-3----------3------------5---------3---------5---------------5-----------7----5------
|-1----------3------------3---------3---------3---------------5-----------5----5------
|------------3----------------------3-------------------------5----------------5------

[01:45]
You're lost children but you know for sure,  you gotta find out what your love is for
-------------------------------------------------------------------------------------|
-------------6-------------------------6---------------------8-------------10--------|
-3-----------5----------------5--------5------5--------------7-------------9---------|
-3-----------3----------------5--------3------5--------------5-------------7---------|
-1-----------3----------------3--------3------3--------------5-------------7---------|
-------------3-------------------------3---------------------5-------------7---------|

[Solo]
[01:53-02:23]

|---10-----------------------------------------------------------------------------------------------------
|-10--10-13b15-b15~-\----13-13~~------------------------------10-------------10------------------------13~~
|-------------------------------12b13r12p10-12-12~~-12-10-------12-10-x-10-12--10~~----10-12p10---12b14----
|--------------------------------------------------------12------------------------------------12----------
|----------------------------------------------------------------------------------------------------------
|----------------------------------------------------------------------------------------------------------

----13-15b17~~-15-13-15p13--------------------------------------------------------
-10-----------------------15b17r16b17-b18r15p13-15~~------------------------------
---------------------------------------------------------12-10c-12~-10~~----------
--------------------------------------------------------x-----------------12--10~~
-------------------------------------------------------x--------------------12----
----------------------------------------------------------------------------------

----------------------------------------------------------------------------------------------------------------------|
----------------------------------------------------------------------------------------------------------------------|
---------------10----10-----10-----10-----10--------------------------------------------------------------------------|
-------------10--8-/10---8/10---8/10---8/10------10~---------------10-------------10-------------10-------------10-12-|
-12p10\8-10/12--------------------------------/12~---12p10-8---10/12--12p10-8-10/12--12p10-8-10/12--12p10-8-10/12-----|
----------------------------------------------------------------------------------------------------------------------|


[02:23]
Oh baby life ain't what it used to be...
|-----1--------------------------1-0---3--------------------1-0--------------
|--3--1-3----------------3-3-3---1-0-3-3--------3--3-3-3-3--1-0-3------------
|--2-----2----2-0--------4-2-4-------2-0--------2--4-2-4-2------2--/4-2-0----
|--0--------------3sb-0--0---------------3sb-0--0--0-0---0----------------3~-
|----------------------------------------------------------------------------
|----------------------------------------------------------------------------
|
|----------------------------------------------------------------------------
|----------------------------------------------------------------------------
|----------------------------------------------------------/7~~--------------
|---------------------------------------------------------------------7\5-3~~
|----------------------------------------------------------------------------
|------------------------0\\trem down----------------------------------------

[02:33]
-------------------------------------------------------------------------------/1-1-x-1-1------
-------------3-3-------------3-3-----------------------------3---3---3---3-----/1-1-x-1-1-3--3-
-2---4---2---4-2---4---2---2-2-0-------0-----0---------------2---4---2---4----------------2--2-
-0-0-0-0-0-0-0-0-0-0-0-0-0-0-0-0---0---0-----0-0---0-----0---0---0-0-0-0-0-0-0--------------0--
-------------------------------3-3-3-3-3-3-3-3-2-2-2-2-2-3-0---0-------------------------------
-----------------------------------------------------------------------------------------------


[02:45]
|---------------------------------------------------------------------------------------------------
|----3---3---3-----3-----3-----3-----3---3---3-3---3-----3-------------------------------------33---
|----4---2---4-----2-----0-----2-----4---2---2-2---2-----2-----------0-------0-0---------------22---
|0-0-0-0-0-0-0-0-0-0-3-0-0-0-0-0-0-0-0-0-0-0-0-0-0-0---0-0-0-0-------0---0---0-0-----3-0-3-0-0-00---
|--------------------------------------------------------------0-3-3-3-3-3-3-3-0-555-3-0-3-0-0-00---
|--------------------------------------------------------------------------------555-3-0-3-0-0-00---
|
|---------------------------------------------------------------------------------------------------
|-----------------------------------------------------------------------------(pb8)9r8p6-8-6sb------
|--------------------5---------------------------------5/7-5--5~~-----------------------------7-7~~
|---------------------/5-3--------------------------------------------------------------------------
|-------------------------5-5~~---------------------------------------------------------------------
|---------------------------------------------------------------------------------------------------


|---------------1-0---0---------------------------------------------------------------------------------------------------|
|---------------1-0-3-0-3-3----------------------------------------------------6---------------8---------------------2----|
|-4---2---4---------2---2-0---------4---2---4-----5-5-5-5-5-5------7-----------5---------------7---------------------3----|
|-0-0-0-0-0-0-0-----------0-sb3-0-0-0-0-0-0-0-0-0-5-5-5-5-5-5------5---5---5---3---------------5---5---5---5---------0----|
|-------------------------------------------------3-3-3-3-3-3-0-5--5---5---5---3---------------5---5---5---5---------0----|
|----------------------------------------------------------------5-5-5-5-5-5-5-3---------------5-5-5-5-5-5-5---------0----|
|oohh  that's a shame....
|----------------------------------------------10~~--13b15c---------------------------------------------------------------|
|-8sb9999991010-10r8-6-8---8-6~~--//(14)----------------------------------------------------------------------------------|
|-------------------------------------------------------------------------------------------------------------------------|
|--------------------------------------------------------------------------------------------------------(15)\\------3----|
|--------------------------------------------------------------------------------------------------------(15)\\---0-3-5~~-|
|--------------------------------------------------------------------------------------------------------(15)\\3-5--------|


[Solo 2]
[03:12]
|---------------------------------------13~~-15-13-pb(16)17r16-b18-pb(15)17r15~~------------------------
|----------------------------------13-15-----------------------------------------15-13-15---------------
|-------------5-7-10~~--12-10-12/14-------------------------------------------------------14\12-10-10~~-
|-3~--5-3--5/7------------------------------------------------------------------------------------------
|-------------------------------------------------------------------------------------------------------
|-------------------------------------------------------------------------------------------------------

-----------------------------------------------------------------------------13-12--------------------------
---------13-15b17r15p13-15~~------------------------------------------------------15-13---------------------
-12c-12c--------------------pb(14)15r14-12-14b15r14-12~~------11-13b15-r13~~------------15-14-12-10-12b14~~-
----------------------------------------------------------10~~----------------------------------------------
------------------------------------------------------------------------------------------------------------
------------------------------------------------------------------------------------------------------------

------------------------------20b22~~--20p19---------------------|
---------13-15b17r15p13-15~~----------------22-20c-20-19---------|
-12c-12c-------------------------------------------------19-19~~-|
-----------------------------------------------------------------|
-----------------------------------------------------------------|
-----------------------------------------------------------------|

[rythm guit continues...]

ooh i don't wanna leave you mama
[03:43]                                                      
|------10---------------10-----------------------------------|
|--------10-13b15~~---10--10---------------------------------|
|-12b14---------------------pb(12)13r12b13-13r12-10----------|
|--------------------------------------------------12--------|
|----------------------------------------------------12-10\\-|
|------------------------------------------------------------|

an I don't wanna leave you papa
[03:51]
|--22sb23sb23sb24sb24sb24sb24sb25sb25r22-20~~--20b22r20---------|
|--------------------------------------------22--------22-20\\--|
|---------------------------------------------------------------|
|---------------------------------------------------------------|
|---------------------------------------------------------------|
|---------------------------------------------------------------|


[03:56]
------------------------------------------------------------------------------------------
------------------------------------------------------------------------------------------
-7--------7-7-5-5----7-7-5-5---5---5---5-5-7-7----5-5-7-7----7-7-5-5----------------------
-7--------7-7-5-5----7-7-5-5---5---5---5-5-7-7----5-5-7-7----7-7-5-5--------0\\-----------
-5--------5-5-3-3----5-5-3-3---3---3---3-3-5-5----3-3-5-5----5-5-3-3--------0\\-----------
----------------------------------------------------------------------------0\\trem down--
Long haired women gonna turn you to stone
You can't beat em -  cos you need em
You gotta live, you gotta love
Your love token's gotta fit like a glove

[04:11]
|-----17b18--17b18-17~~--15b17-17r15p13-15-13-15b17~~-----19b20--19b20-19~~--20b22-b22-b22-b22r20-19b20---------|
|---18---------------------------------------------------20--------------------------------------------22-20~~--|
|--17---------------------------------------------------19------------------------------------------------------|
|-15---------------------------------------------------17-------------------------------------------------------|
|---------------------------------------------------------------------------------------------------------------|
|---------------------------------------------------------------------------------------------------------------|

|xx023x|      |xx022x|        |xx020x|     |xx022x|
Listen to the story 'bout the dream that's broken

|x3203x|
You gotta keep a hold on your old love token

[04:25]
|--10---10101010101010--13b15-13~---15b17-b17-b17-b17-b17-b17r15-15p13-15p13---------------
|--13b1515151515151515------------------------------------------------------15b18r15-13~~--
|------------------------------------------------------------------------------------------
|------------------------------------------------------------------------------------------
|------------------------------------------------------------------------------------------
|------------------------------------------------------------------------------------------

[04:37]                             |repeated and down with trem arm|
-------17------17------17------17---17t20p17t20-------------------------------------------|
--20b22---20b22---20b22---20b22-----------------------------------------------------------|
---------------------------------------------------------------------12b14t14sr10~~~------|
------------------------------------------------------------------------------------------|
------------------------------------------------------------------------------------------|
------------------------------------------------------------------------------------------|

[04:48]
|-----------------------------------------
|-----------------------------------------
|-----------------------------------------
|-5-5-5-5-3-0---5-5-5-5-3-0---5-5-5-5-3-0-
|-5-5-5-5-3-0---5-5-5-5-3-0---5-5-5-5-3-0-
|-5-5-5-5-3-0---5-5-5-5-3-0---5-5-5-5-3-0-

No I don't wanna leave
No I don't wanna leave
No I don't wanna leave

-----------------------|
-----------------8-----|
-----------------7-----|
-5-5-5-5-3-0-5-3/5-----|
-5-5-5-5-3-0-5-3/5-----|
-5-5-5-5-3-0-5-3/5-----|

No I don't wanna leave you alone


[multitrack 6 notes or more]
|---/19~~------|
|-10b12~~------|
|-10b12~~------|
|---/12~~------|
|--------------|
|--------------|
|
|---/15~~------|
|-13b15~~------|
|--------------|
|--------------|
|--------------|
|--------------|


but I'm gona have to babe...        yeah!!!       [trem]
----------------------------2--------------17~~~--20\/20--20b22~~~\\\---|
----------------------------3-------------------------------------------|
----------------------------2-------------------------------------------|
----------------------------0-------------------------------------------|
----------------------------0-------------------------------------------|
----------------------------0-------------------------------------------|

[piano roll...]

|--8--8---------------------13b15-13~~---pb(13)15r13p10--------------------------------------------------
|-10---10-8sb------------------------------------------13-10---------------------------------------------
|------------10-7-7~~----------------------------------------10~~----13-12-10----------------------------
|-----------------------------------------------------------------------------12-10----------------------
|-----------------------------------------------------------------------------------12\10-8-10-8---------
|------------------------------------------------------------------------------------------------12-10~~-

                  |inaudible++++++++++++++|        
---------------------------------------------------12-b13-b13-b14-12b14-12~~--
-----------------------------------------------10-----------------------------
--------------------------------------------/12-------------------------------
------------------------------------------------------------------------------
------10h12-------------9-9h10------------------------------------------------
-10h12-----12-10-9~--/12-----12~~---------------------------------------------


--17b19-b19-b19-b19-b19-b19-b19-b19-b19r17p14-------------------------------------------------------
---------------------------------------------15-15~~------13p10---------------------------------10b-
---------------------------------------------------------------12-10b-12-12-10------------------10b-
-------------------------------------------------------------------------------12~-12-10-11-12~-----
----------------------------------------------------------------------------------------------------
----------------------------------------------------------------------------------------------------


---------------------------------------------------------------------------------------------------------------|
-----13-15-----------------1313--------------------13c-15~---12c-1515~-12c--1515~--12c--15~-----17b18r17-15~~\-|
-/14~------12b-10-------/14----14----------------14c-----------------------------------------------------------|
------------------12~------------15-12~-------/15c-------------------------------------------------------------|
---------------------------------------------------------------------------------------------------------------|
---------------------------------------------------------------------------------------------------------------|


tabbed my resurrected
Miguel Sobrevia,
Chile,
march 2005
mail tomsobrevia@yahoo.es
31.Erik 04 Aug 2005 15:43
Have you, LG, any kind of clue when you have a time to put all these stuff under this topic into the "Tabs and Sheets" archive?
32.PD 04 Aug 2005 18:18
Updates seem to be done very soon. Many thanks to all contributors:
Erik, Daniel, Miguel, Henrik, Maxi Dries, and others!
Keep on contributing!
33.PD 04 Aug 2005 18:45

HenrikBjorklund: I cant live with you TAB 07/24/2005 19:00
Riff 1
E-------------------|
B--9-9--9--9--9\----|
G--9-9--9--9--9\----|
D--9-9--9--9--9\----|
A--7-7--7--7--7\----|
E-------------------|

Riff 2 verse
E---------------------------------|
B---------------------------------|
G---------------------------------|
D----1/3/4----2/3/4----2/3/4------|
A----2/3/4----2/3/4----2/3/4------|
E----0/1/2----0/1/2----0/1/2------|

Riff 3
E-----------------------------|
B-----------------------------|
G-----------------------------|
D-----------------------------|
A---1-/2-/3-/4---7p4----------|
E---------------------4-------|

Riff 4
E----------------------------------|
B-5--------------------------------|
G-6--------------------------------|
D-7-------5/6/7--------5/6/7-------|
A-7-------5/6/7--------5/6/7-------|
E-5-------3/4/5--------3/4/5-------|

Riff 5
E-----------------------------|
B-----------------------------|
G-----------------------------|
D-----------------------------|
A--/4-/5-/6-/7---10p7---------|
E-----------------------------|


[INTRO]
Riff 1  (2x)

[CHORUS]
Riff 1    A     B
Riff 1    A     B
D    A
Riff 1  (2x)

[VERSE 1]
Riff 2  
Riff 3
Riff 4
Riff 5


[PRE-CHORUS]
 C - G  C - G  C - G  D    (2x)
Love is say-ing...
C - G  C  -  G  C - G  D - A  D - A  D - A
Lo-ver  turns...

(Riff 1 1x at the end

[VERSE 2]

[PRE-CHORUS]
C - G  C - G  C - G  D       (2x)
Hold on...
 C - G   C  -  G  C - G  D - A  D - A  D – A - B
Passions screaming...                          do...

[BRIDGE]
E    A    
Am   G
B    A    F#m7   B

E------------------------------------------------------|
B--------------12--10p9--------------------------------|
G-----9~~~---------------9-----------------------------|
D--------------------------9----11~~9--7--6------------|
A---------------------------------------------9--------|
E------------------------------------------------------|
   
E-------------------------------------------------------|
B-------------------------------------------------------|
G----------------11b13r11p9-----9-13b14r13--11----------|
D------------9---------------11-------------------------|
A---7---9h11--------------------------------------------|
E-------------------------------------------------------|

E-------------------------------------------------------|
B----------------------------------------/12------------|
G---9----9------14~~-12p11h12~~-11p9h11-----------------|
D----------9--------------------------------------------|
A-------------------------------------------------------|
E-------------------------------------------------------|

[CHORUS]

two guitars arranged for one

     D                 A
E---------------------/9---/10--/11--/12--15b16----|
B---/7--/9--/10--/12--/10--/12--/13--/14--16b17----|
G---/7--/9--/11--/13-------------------------------|
D--------------------------------------------------|
A--------------------------------------------------|
E--------------------------------------------------|

[CHORUS] at 2:50

[OUTRO] Riff 1  A   B  then fade out
34.PD 04 Aug 2005 18:49

Step On Me


Intro G D, G D, G   D, G  G


Verses

D           D/Db        F#m
Know what I said when I saw you crying
Em             G    A    
Hang on that's fooolly
      D           D/Db        F#m
I was reeking the head I believed your lying
Em                     G    A
You're just a bad memory

D    A    G                F#m        Em
My    life was going to be better
D    A    G        G  D  G D  G   D     G    G  D      G/B D/A , G/B D/A, G/B   D/A, G  G
My     why could I never ever see she'd step on me

G/B D/A , G/B D/A, G/B   D/A, G  G



Chorus:
D    D/Db  Bm   D    D/Db  Bm   D   D/Db  Bm  
Step on    me,  Step on    me,  Step on    me
 


Interlude/Guitar Solo:
Bm  F#m  F   Em , Bm  F#m  F   Em , F Em A


End:
  G  D  G D  G   D     G    G      D
I never ever see she'd step on me




Well I talked to your friend just the other day
I was gonna look and raise a smile
And she hid a smile and she ain't like you
Been asleep from all the journeys a little while
My life was going to be better
My why could I never ever see she'd step on me


Now it's so good I won't waste my time
On a two year old picture of you
Oh now that you're gone everything's fine
But you probably think that we're through
My life was going to be better
My why could I never ever see she'd step on me
35.PD 04 Aug 2005 18:51

From the album JAZZ

acoustic guitar:
(tune down 1/2 step)
  |     |     |     o     |     |     |     o     |     |     o   o |     |
|-------------------------2-----2-----2-----2-----------------2---0-------|
|-------------2-----------3-----3-----3-----1-----2-----2-----3---3-------|
|-2-----------2-----2-----2-----2-----2-----2-----2-----2-----1---1-------|
|-2-----------2-----3-----0-----0-----0-----1-----2-----2-----2---2-------|
|-0---2-3---4-0-----4-----------------------0-----0-----0-----------------|
|-----------------------------------------------------------0-------------|

  |     |     |     o     |     |     |     o     |     |     |     o     |
|-------------------------------------2-----1-----2-----2-----2-----------|
|-2-----2-----2-----2-----3-----3-----3-----3-----3-----3-----3-----1-----|
|-2-----1-----0-----0-----2-----2-----2-----1-----2-----2-----2-----2-----|
|-2-----2-----2-----3-----0---2-3---4-0-----0-----0-----0-----0-----1-----|
|-0-----0-----0-----4-----------------------------------------------0-----|
|-------------------------------------------------------------------------|

  |     |     o   o o     |     |     |     |     |     |     |   o |     |
|-------------2---0-0---------------------------------------------0-------|
|-2-----2-----3---3-3-----2-----2-----2-----2-----------------------------|
|-2-----2-----1---1-1-----2-----2-----3-----3-----------------------------|
|-2-----2-----2---2-2-----2-----2-----2-----2-----------------------------|
|-0-----0-----------------0-----0-----4-----4-----------------------------|
|-------------------------------------3-----3-------4-2---1-0-------0---1-|

  o     |     |     |     |     |     |     |     |     o     o o   |     |
|-------------------------------------------------------0-----0-0---------|
|-----3-------4-----3-----2-----------3-----4-----5-----5-----5-5---------|
|-----2-------2-----2-----2-----------4-----5-----6-----7-----7-7---------|
|-----0-------1-----0-----2-----------0-----7-----7-----6-----6-6---------|
|-------------3-----2-----0----/4-----5-----6-----7-----7-----7-7---------|
|-2-----2-----1-----0-----------------------------------0-----0-0---------|

  |     |     |     o     |     |     |     o     |     |     |     |     |
|-------------------------2-----2-----2-----2-----------------0-----0-----|
|-------------------------3-----3-----3-----1-----2-----2-----3-----3-----|
|-2-----------2-----2-----2-----2-----2-----2-----2-----2-----1-----1-----|
|-2-----------2-----3-----0-----0-----0-----1-----2-----2-----2-----2-----|
|-0---2-3---4-0-----4-----------------------0-----0-----0-----------------|
|-------------------------------------------------------------------------|

  |     |     |     o     |     |     |     o     |     |     |     o     |
|-------------------------2-----2-----2-----1-----2-----2-----2-----------|
|-2-----2-----2-----2-----3-----3-----3-----3-----3-----3-----3-----1-----|
|-2-----2-----2-----2-----2-----2-----2-----1-----2-----2-----2-----2-----|
|-2-----2-----2-----3-----0-----0-----0-----0-----0-----0-----0-----1-----|
|-0-----0-----0-----4-----------------------------------------------0-----|
|-------------------------------------------------------------------------|

  |     |     |     |     |     |     |     |     |     |   o |   o |     |
|-------------0-----0---------------------------------------------0-------|
|-2-----2-----3-----3-----2-----2-----2-----2-----------------------------|
|-2-----2-----1-----1-----2-----2-----3-----3-----------------------------|
|-2-----2-----2-----2-----2-----2-----2-----2---------0-------------------|
|-0-----0-----------------0-----0-----4-----4-----------------------------|
|-------------------------------------3-----3-----4-----2-1-0-------0---1-|

  |     |     |     |     |     |     |     |     |     o     o   o |     |
|-------------------------------------------------------0-----0---0-------|
|-----3-------4-----3-----2-----------3-----4-----5-----5-----5---5-------|
|-----2-------2-----2-----2-----------4-----5-----6-----7-----7---7-------|
|-----0-------1-----0-----2-----------0-----7-----7-----6-----6---6-------|
|-------------3-----2-----0----/4-----5-----6-----7-----7-----7---7-------|
|-2-----2-----1-----0-----------------------------------0-----0---0-------|

  |     |     |     |     |     |     |     |     |     |     |     |     |
|-5-----5-----5-----5-----5-----5-----4-----4-----------------------------|
|-5-----5-----5-----5-----6-----6-----6-----6-----------------------------|
|-6-----6-----6-----6-----4-----4-----4-----4-----2-----2-----2-----2-----|
|-7-----7-----7-----7-----6-----6-----6-----6-----4-----4-----4-----4-----|
|-7-----7-----7-----7-----4-----4-----4-----4-----4-----4-----4-----4-----|
|-5-----5-----5-----5-----------------------------2-----2-----2-----2-----|

  |     |     |     |     |     |     |     |     |     |     |     |     |
|-------------------------2-----2-----------------2-----2-----------------|
|-2-----3-----4-----2-----3-----3-----2-----2-----3-----3-----2-----2-----|
|-2-----2-----2-----2-----2-----2-----2-----2-----2-----2-----2-----2-----|
|-2-----0-----1-----2-----0-----0-----2-----2-----0-----0-----2-----2-----|
|-0-----2-----3-----4-----------------0-----0-----------------0-----0-----|
|-------------------------------------------------------------------------|

  |     |     |     |     |     |     |  o  |     |     |     |     |     |
|-5-----5-----5-----5-----------------------------------------------------|
|-7-----7-----7-----7-----0----2----3----4--------2-----2-----6-----6-----|
|-8-----8-----8-----8-----1----2----4----5--------2-----2-----4-----4-----|
|-7-----7-----7-----7-----2-----------------------2-----2-----6-----6-----|
|-------------------------2-----------------------0-----0-----4-----4-----|
|-------------------------0-----------------------------------------------|

  |     |     |     |     |     |     |     |     |     |     o   o |     |
|-2-----2-----2---2-2-----5-----5---------------------------------0-------|
|-3-----3-----1---1-1-----5-----5-----4-----3-----2-----2-----------------|
|-2-----2-----2---2-2-----6-----6-----2-----2-----2-----2-----0-----------|
|-0-----0-----1---1-1-----7-----7-----1-----0-----2-----2-----------------|
|-------------------------7-----7-----3-----2-----0-----0-----------------|
|-------------------------5-----5-----1-----0-----------------------------|

  |     |     |     o     |     |     |     o     |     |     o   o o     |
|-------------------------2-----2-----2-----2---------------------0-0-----|
|-------------------------3-----3-----3-----1-----2-----2-----3-----------|
|-2-----------2-----2-----2-----2-----2-----2-----2-----2-----1-----------|
|-2-----------2-----3-----0-----0-----0-----1-----2-----2-----2-----------|
|-0---2-3---4-0-----4-----------------------0-----0-----0-----------------|
|-------------------------------------------------------------------------|

  |     |     |     o     |     |     |     o     |     |     |     o     |
|-------------------------------------2-----1-----2-----2-----2-----------|
|-2-----2-----2-----2-----3-----3-----3-----3-----3-----3-----3-----1-----|
|-2-----2-----2-----2-----2-----2-----2-----1-----2-----2-----2-----2-----|
|-2-----2-----2-----3-----0---2-3---4-0-----0-----0-----0-----0-----1-----|
|-0-----0-----0-----4-----------------------------------------------0-----|
|-------------------------------------------------------------------------|

  |     |     |     |     |     |     |     |     |     |     |     |     |
|-------------2-----2-----------------------------------------0---0-0-----|
|-2-----2-----3-----3-----2-----2-----2-----2-----------3-----3---3-3-----|
|-2-----2-----1-----1-----2-----2-----3-----3-----2-----1-----1---1-1-----|
|-2-----2-----2-----2-----2-----2-----2-----2-----2-----2-----2---2-2-----|
|-0-----0-----------------0-----0-----4-----4-----2-----------------------|
|-------------------------------------3-----3-----0---------------------0-|

  |     |     |     |     |     |     |     |     |     o     o   o |     |
|-------------------------------------------------------0-----0---0-------|
|-3---3-------4-----3-----2-----------3-----4-----5-----5-----5---5-------|
|-2---2-------2-----2-----2-----------4-----5-----6-----7-----7---7-------|
|-0---0-------1-----0-----2-----------0-----7-----7-----6-----6---6-------|
|-0-----------3-----2-----0----/4-----5-----6-----7-----7-----7---7-------|
|-2-----2-----1-----0-----------------------------------0-----0---0-0---0-|

  |     |     |     |     |     |     |     |     |     |     |     |     |
|-------------------------------------------------2-----4-----2-----2-----|
|-2-----2-----2-----2-----6-----6-----6-----6-----4-----4-----4-----2-----|
|-2-----2-----2-----2-----4-----4-----4-----4-----2-----2-----2-----2-----|
|-2-----2-----2-----2-----6-----6-----6-----6-----4-----4-----4-----4-----|
|-0-----0-----0-----0-----4-----4-----4-----4-----------------------------|
|-------------------------------------------------------------------------|

  |     |     |     |     |     |     |     |     |     |     |     |     |
|-------------------------2-----2-----------------2-----2-----------------|
|-------------2-----2-----3-----3-----2-----2-----3-----3-----2-----2-----|
|-2-----2-----2-----2-----2-----2-----2-----2-----2-----2-----2-----2-----|
|-2-----2-----2-----3-----0-----0-----2-----2-----0-----0-----2-----2-----|
|-0-----0-----0-----4-----------------0-----0-----------------0-----0-----|
|-------------------------------------------------------------------------|

  |     |     |     |     |     |     |     |     |     |     |     |     |
|-5-----5-----5-----5-----------------------------------------------------|
|-7-----7-----7-----7-----0----2--3------4--------2-----2-----6-----6-----|
|-8-----8-----8-----8-----1----2--4------5--------2-----2-----4-----4-----|
|-7-----7-----7-----7-----2-----------------------2-----2-----6-----6-----|
|-------------------------2-----------------------0-----0-----4-----4-----|
|-------------------------0-----------------------------------------------|

  |     |     |     |     |     |     |     |     |     |     |     |     |
|-2-----2-----2---2-2-----5-----5-----0-----0-----5-----5-----0---0-------|
|-3-----3-----1---1-1-----5-----5-----5-----5-----5-----5-----5---5-------|
|-2-----2-----2---2-2-----6-----6-----7-----7-----6-----6-----7---7-------|
|-0-----0-----1---1-1-----7-----7-----6-----6-----7-----7-----6---6-------|
|-------------------------7-----7-----7-----7-----7-----7-----7---7-------|
|-------------------------5-----5-----0-----0-----5-----0-----0---0-------|

  |     |     |     |     |     |     |     |     |     |     |     |     |
|-------------------------------------------------2-----2-----2---2-2-----|
|-2-----2-----2-----2-----6-----6-----6-----6-----3-----3-----3---3-3-----|
|-2-----2-----2-----2-----4-----4-----4-----4-----2-----2-----2---2-2-----|
|-2-----2-----2-----2-----6-----6-----6-----6-----0-----0-----0---0-0-----|
|-0-----0-----0-----0-----4-----4-----4-----4-----------------------------|
|-------------------------------------------------------------------------|

  |     |     |     |     |     |     |     |     |     |     |     |     |
|-------------------------2-----2-----------------2-----2-----------------|
|-2-----3-----4-----2-----3-----3-----2-----2-----3-----3-----2-----2-----|
|-2-----2-----2-----2-----2-----2-----2-----2-----2-----2-----2-----2-----|
|-2-----0-----1-----2-----0-----0-----2-----2-----0-----0-----2-----2-----|
|-0-----2-----3-----4-----------------0-----0-----------------0-----0-----|
|-------------------------------------------------------------------------|

  |     o     |     o     |     |     |     |     |     |     |     |     |
|-5-----5-----5-----5-----------------------------------------------------|
|-7-----7-----7-----7-----0----2----3---(4)-------2-----2-----6-----6-----|
|-8-----8-----8-----8-----1----2----4---(5)-------2-----2-----4-----4-----|
|-------------------------2-----------------------2-----2-----6-----6-----|
|-------------------------2-----------------------0-----0-----4-----4-----|
|-------------------------0-----------------------------------------------|

  |     |     |     |     |     |     |     |     |            o    o      o
|-2-----2-----2---2-2-----------------0---0-0------------------2----0---------|
|-3-----3-----1---1-1-----2-----2-----3---3-3------------------1----3---1--2--|
|-2-----2-----2---2-2-----2-----2-----1---1-1-----2------------2-2------2--2--|
|-0-----0-----1---1-1-----2-----2-----2---2-2-----2----------0-1-2--2---1--2--|
|-------------------------0-----0-----------------0---2-3--4---0-0------0--0--|
|-----------------------------------------------------------------------------|

o: let ring


special chords are:
 Aaug       Adim   Ddim  A#dim   C#7   C#7/A    E7   E7/F#  Amaj7  Adim
|-----------2------1-------------4------5------0-0----2------0------5------|
|-2----2----1------3------2------6------6------3-5----3------2------7------|
|-2----0----2------1------3------4------4------1-7----1------1------8------|
|-3----3----1------0------2------6------6------2-6----2------2------7------|
|-4----4----0-------------4------4------4--------7-----------0-------------|
|-------------------------3----------------------0-------------------------|

Esus7  F7    B7   B7/G#  F#m   D/B   Adim
|-------------2-----4-----2------------------|
|-3-----4-----4-----4-----2-----3-----4------|
|-2-----2-----2-----2-----2-----4-----5------|
|-0-----1-----4-----4-----4-----0-----7------|
|-2-----3-----------------4-----5-----6------|
|-0-----1-----------------2------------------|



and here comes the Red Special
left
|--------------------------------------------------------------------------|
|--------------------------------------------------------------------------|
|----b6v--------4----------------------------------------------------------|
|-7----------6-------7--4---------------------7--7---------------6---4-3-2-|
|-------------------------5--5-b6--b6v---7--7------7r6--5--4---------------|
|--------------------------------------------------------------------------|
|middle
|---------------------------------------------------------------------------|
|----9b10v----6--8b9v---7---------------------------------------------------|
|-9------------------------7--------------------6--7-8--9--------------9----|
|----------------------------9--7-9b10--b10v--------------10r9--7--7--------|
|---------------------------------------------------------------------------|
|---------------------------------------------------------------------------|
|right
|---------------------------------------------------------------------------|
|---------------------------------------------------------------------------|
|-6--9----6--9b10----7------------------------------------------------------|
|-----------------------7--------------------7--9-10--11---------------10---|
|-------------------------10--9-10b12--b12v--------------10_r9-7--7---------|
|---------------------------------------------------------------------------|

49"
left
|-----------------------------------------------*
|-----------------------------------------------*
|-----------------------------------------------*
|---4---7---7-----------------------------------*
|-5-------------6---7-----6b7---7--7---0-8b9----*
|-----------------------------------------------*
|middle
|-------------------------------------------------------*
|-----------4---5---7--6-5-4-3--------------------------*
|---6---7-----------------------*-5b6----6--6---*-6b7---*
|-7-----------------------------------------------------*
|-------------------------------------------------------*
|-------------------------------------------------------*
|right
|--------------------------------------------------------*
|--------------------------------------------------------*
|-------5b--6-----5b6--5b6-------------------------------*
|-4-7--------------------------6b7----7--7---4-6b7---7---*
|---------------7------------7---------------------------*
|--------------------------------------------------------*


*-------------------------------------------|
*-------------------------------------------|
*-------------------------------------------|
*-7---7--7---6--4--3--2--2-2--2-2--2--------|
*------------------------------------4--4-5-|
*-------------------------------------------|
*
*----------------------------------------------------|
*----------------------------------------------------|
*-7--8---b9--b9v----7--7---6--6\5--5\4--4------------|
*-----------------------------------------7--7-6b7---|
*----------------------------------------------------|
*----------------------------------------------------|
*
*--------------------------------------------------|
*--------------------------------------------------|
*-5b6---6--6---6r5-4--4----------------------------|
*--------------------------7--7\6--6\5--5p3--3/4---|
*--------------------------------------------------|
*--------------------------------------------------|


57"
left
|----------------------------------------------------------------------------*
|----------------------------------------------------------------------------*
|----------------------------------------------------------------------------*
|-6---7-----7---7--7--6--6--7--7--8--8--8b9-----4-4-----------------------7--*
|------------------------------------------------------7r6--5--4----7--9-----*
|----------------------------------------------------------------------------*
|middle
|--------------------------------------------------------------------------*
|-6--6b7v---4---5--5--5--5--5--5--8--7-------------------------------------*
|---------------------------------------8b9------7-----------------5/6--7--*
|----------------------------------------------7-----9b11--r9--7-----------*
|--------------------------------------------------------------------------*
|--------------------------------------------------------------------------*
|right
|--------------------------------------------------------------------------*
|--------------------------------------------------------------------------*
|-7---7-----5---6--6--7--7--6--6--6--6--6b7--------------------------------*
|----------------------------------------------4-4----5r4--2---2---7---7---*
|--------------------------------------------------------------------------*
|--------------------------------------------------------------------------*

*---------------------|
*---------------------|
*---------------------|
*-7-----6----4--3--2--|
*---------------------|
*---------------------|
*
*----------------|
*----------------|
*-8--9-9----5-6--|
*----------------|
*----------------|
*----------------|
*
*-------------------|
*-------------------|
*-5b6--6---5v-------|
*--------------5-6--|
*-------------------|
*-------------------|


1'22"
middle
|----------------------|
|----------------------|
|----------------------|
|---9b11---9b11r9p7----|
|-9-----------------9--|
|----------------------|

1'24"
three gtrs.
|--------------------|
|--------------------|
|-6--6-7--7-8---b9---|
|-7--7-9--9-10--b11v-|
|-2--2-4--4-7----7---|
|--------------------|


middle
|---------------------------------------------------------------------------|
|---------------------------------------------------------------------------|
|-11-9--------------------9---11-9------------------------------------------|
|------9b10-7---7----11------------11-9-7---7---7--------7---7--------------|
|-------------9--------------------------------------989---------1097--9...-|
|---------------------------------------------------------------------------|

solo: 1'45"
middle
|------------------------------------------------------------------10b12---|
|-7b8---b8--7-5---------------------5-8b10v--b10vv----7---8-9---10---------|
|---------------5b7-------6---7-8------------------------------------------|
|--------------------------------------------------------------------------|
|---------------------7\---------------------------------------------------|
|--------------------------------------------------------------------------|

|-10--8b9----8b--8b-----------7---------------------|
|------------------------7-10---10\9---9\8---8-6----|
|----------------------9----------------------------|
|---------------------------------------------------|
|---------------------------------------------------|
|---------------------------------------------------|

|---------------------------------10--10-------10-14p11--------|
|-7---8-9---10-13b15--b15---12-10-----------10---------13------|
|--------------------------------------------------------14----|
|--------------------------------------------------------------|
|--------------------------------------------------------------|
|--------------------------------------------------------------|

|-----------12--------------------------------|
|----13b14-------13b14--14--------------------|
|-14-------------------------------14_____\---|
|----------------------------13-14-14_____\---|
|---------------------------------------------|
|---------------------------------------------|

|-----------------------------------|
|-----------------------------------|
|-16b18--b18--b18--16-14------------|
|------------------------17r16-14---|
|-----------------------------------|
|-----------------------------------|

|-----------------------------------------------|
|-----------------------------------------------|
|-------14----14-16-16b17---14-16----14-16-14---|
|-15-16----16---------------------16------------|
|-----------------------------------------------|
|-----------------------------------------------|

2'14"
three gtrs
|--------------------------------------------------------------|
|-13/14--15--16b--b17v-----------------------------------------|
|-13/14--14--14---14v\-----------------------------------------|
|-13/14--16--15---14-----16p14----------------11-----9-----7---|
|------------------------------15------------------------------|
|---------------------------------16-14-13-12-12----13----14---|

2'26"
left                  2'34"
|--------------------|-------------------------------|
|--------------------|-------------------------------|
|-------------6---6--|-------------------------------|
|--------7--7--------|-7---------------4---5--6---7--|
|-7-7--7-------------|-----------7---7---------------|
|--------------------|-------------------------------|
|middle
|--------------------|----------------------------------|
|-------------10--10-|----------------------------------|
|---6--7-8--9--------|-8---------7---7---7---b8---9-..--|
|-7------------------|----------------------------------|
|--------------------|----------------------------------|
|--------------------|----------------------------------|
|right
|----------------------|---------------------------|
|----------------------|---------------------------|
|---------------9--10--|---------------------------|
|---7--9-10--11--------|-11---9----6--6-7---9--10--|
|-7--------------------|---------------------------|
|----------------------|---------------------------|

left 2'41"             right 2'44"
|---------------------|-------------------------------|
|---------------------|-------------------------------|
|---------------------|-16b18---b17_r_p14----14b---16-|
|-9b11--9br9---7---7--|-------------------16----------|
|----------------9----|-------------------------------|
|---------------------|-------------------------------|

2'47"
left
|----------------------------------------------------*
|----------------------------------------------------*
|----------------------------------------------------*
|--5-7\0----2--2\---7--7\---6--6/---12--11---11b12---*
|----------------------------------------------------*
|----------------------------------------------------*
|middle
|-------------------------------------------------*
|-------------------------------------------------*
|--------9-11-9------------------9--9---10--10v---*
|-----10------------10b11--b11--------------------*
|-------------------------------------------------*
|-------------------------------------------------*
|right
|---------------------------------------------------*
|---------------------------------------------------*
|---------------------------------------------------*
|-10b11---------------7--7---10b11--b11---b11--b11--*
|---------------------------------------------------*
|----------12--12\----------------------------------*


*------------------------------|
*------------------------------|
*------------------------------|
*-x--12-10b11-------10b11------|
*--------------12----------12--|
*------------------------------|
*
*-----------------------------------------|
*-10b12--b12---r10-----x--9---------------|
*---------------------------11--9---------|
*-----------------------------------------|
*-----------------------------------------|
*-----------------------------------------|
*
*------------------------------------------|
*------------------------------------------|
*-10b--10b---10b11----9b11--9-7--6\--x-x---|
*------------------------------------------|
*------------------------------------------|
*------------------------------------------|


left
|------------------------------------------------------*
|------10----------------------------------------------*
|--------11---12-13-b14v-------11---10---10-9---13b14--*
|-12------------------------12-------------------------*
|------------------------------------------------------*
|------------------------------------------------------*
|middle
|---------------------------------------------------------*
|-----10--12-13-13b14v-------10---12--13-14--17b19--17-14-*
|-11---------------------11-------------------------------*
|---------------------------------------------------------*
|---------------------------------------------------------*
|---------------------------------------------------------*
|right
|----------------------------------------------------------*
|----------------------------------------------------------*
|----------------------------------------------------------*
|------12---12-13-14----x-12-----------------13---13---p11-*
|-12--------------------------14b15--14-12-----------------*
|----------------------------------------------------------*


*--------------------------------------------------|
*----------------------------------10--12--13b14---|
*-b14_r13p11-13b14--b14_r13p11-13------------------|
*--------------------------------------------------|
*--------------------------------------------------|
*--------------------------------------------------|
*
*----------------------------------------------------------|
*-----------------------------------------14--15--16_r17---|
*-16b18--18_r16p14-16b18--18_r16p14---16-------------------|
*----------------------------------------------------------|
*----------------------------------------------------------|
*----------------------------------------------------------|
*
*------------------------------------------|
*------------------------------------------|
*----------------------------------13_b14--|
*----13---13---p11-----12--13--14----------|
*-14---------------14----------------------|
*------------------------------------------|


right 3'13"
|--------------------|
|--------------------|
|--------------------|
|-9b11--9br9------7--|
|---------------9----|
|--------------------|

3'19"
left                      3'25"
|------------------------|---------|
|------------------------|---------|
|------------------------|-8--9v---|
|--------7--7------------|---------|
|-7-7--7------9--8----7--|---------|
|------------------------|---------|
|middle
|--------------------------|----------|
|-------------10--10----10-|----------|
|---6--7-8--9--------------|----------|
|-7------------------------|-10--11v--|
|--------------------------|----------|
|--------------------------|----------|
|right
|---------------------------|-------------------------------|
|---------------------------|-------------------------------|
|---------------------------|-------------------------------|
|---7--8-9--10-11--12----13-|-5--7----7p6p5--5--------------|
|-7-------------------------|-------------------7--5b--3h4--|
|---------------------------|-------------------------------|
PD.11.10.96

the vocals in tab format:
1'16"                                      1'37"
|-----------------------------------------------------------------------|
|-5----6---6---------3--2--3--2---4---3----5---6---7---7---5---4--3--2--|
|-2----6---4---2-----5-----5------2---1----6---4---7---8---2---5--2--2--|
|-2----7---6---4-----4--2--4--2---4---2----7---6---7---7---2---5-b4--2--|
|--------------4--------0-----0-----------------------------------------|
|-----------------------------------------------------------------------|

2'19"
|-5--5--4----2--4--2---------b5--b5--5----b5--b5--5---5--4---|
|-2--2--2----4--4--4--5--2---b7--b7--5----b7--b7--5---7--5---|
|---------------------4--2---b5--b5--2----b5--b5--2---8--7---|
|-2--3--3----------------------------------------------------|
|------------4--4--4--2--0-----------------------------------|
|------------------------------------------------------------|

2'40"
|-5---7---7---8--5--5--5--5--|
|-5---9--10--10--5--8--7--5--|
|-6--10--11--11--6--8--7--6--|
|----------------------------|
|----------------------------|
|----------------------------|

3'11"
|-----------------8---8---5-------------|
|-5---12---12-------------5---5--5--5---|
|-6---10---11-----8---8---2---4--3--2---|
|-7---11---12---b10-----------5--4--2---|
|--------------------12-----------------|
|---------------------------------------|

PD
36.PD 04 Aug 2005 18:55

Bijou chords

intro: Dm

A:

| Dm  > A+ > A7 |

| Eb/Bb > Ab(b5>3) |

| F > Dm > Am |

| Dm > F/C > Am |

| Gm7/Bb > Gm7 |

| Dm... |



A'
| Dm  > A+ > A7 |

| Eb/Bb > Gb > Gbdim7 |

| C > C/B... |



Verse:
| Am  > G/A > Fmaj7 > Em7 |

| C > G/B > Am7 > F >  C  |

| Bb > Ab > Ab/Gb > F |



A:

| Dm  > A+ > A7 |

| Eb/Bb > Ab(b5>3) |

| F > Dm > Am |

| Dm > Am |

| Gm7/Bb > Gm7 > Gm7/D |

| Dm... |


A'
| Dm  > A+ > A7 |

| Eb/Bb > Gb > Gbdim7 |

| C... |

PD. 2005
37.PD 04 Aug 2005 18:58

The Fairy Fellers Masterstroke

 This is the rhytm guitar
 I think its fairly accurate

|--------------------------------------------------------------------------|
|-3------3-----------------------------------------------------------------|
|-2------2---------------------------------5-5-2----------5-5-2---7---2----|
|-0--5-4----5-4----------5-5-2-------------5-5-2----------5-5-2---7---2----|
|---------------3-2------3-2-0-------------3-2-0--0--0-2--3-2-0---5---0----|
|---------------------------------------------------3----------------------|

|-----------------------------1------------------------------------------------|
|-----------------------------3------------------------------------------------|
|--------------------------2--2--------------------5---------------5-5-2--7--2-|
|-------2--3---------------2--0--------------------5-5-2-----------5-5-2--7--2-|
|-5-3-5------3------8-7-5--0-----------------------3-2-0--0---0-2--3-2-0--5--0-|
|--------------1------------------1-1-1-1-3-3-3-------------3------------------|

|-----------------------------------1--------------------|
|-----------------------------------3--------------------|
|-----------------------------7--2--2--------------------|
|-------2--3-3----3-3----3-2--7--2--0--------------------|
|-5-3-5-----------------------5--0-----------------------|
|--------------1------1-----------------1-1-1-1-3-3-3----|

|-------------------------------------------------------------------------------|
|-------------------------------------------------------------------------------|
|---2--------4times----3--------3times--------------1-3----7-----------2--------|
|-----3-2----------------4-3------------------1-3-4----------9-7-4-------4-2----|
|---------3------------------4------------3-4-----------5--------------------4--|
|-5------------------6------------------6---------------------------5-----------|

|-------------------------------------------------------------------------------------|
|-------------------------------------------------------------------------------------|
|----7-----------2----------7-----------2----------7---------------0-2-4-5-4---4---4--|
|------9-7-4-------4-2--------9-7-4-------4-2--------9-7-4-----2-3--------------------|
|-5--------------------4--5-------------------4--------------3---------------22--22-2-|
|-------------5-----------------------5----------5------------------------------------|

|----------------------------------------------------------------|
|----------------------------------------------------------------|
|-------------------9-7-5----------------------------------------|
|-----------0-1-2---9-7-5-----------------2---2----2---0-2-4-5---|
|-2-1-2-3-4---------7-5-3--0-0-0-0-2-2-2--2-----2----2-----------|
|-----------------------------------------0----------------------|

|--------------------------------------------------------------------------------------|
|--------------------------------------------------------------------------------------|
|-5-5-2-----------5-5-2---7---2------------------------3-2-0-------7-------------------|
|-5-5-2-----------5-5-2---7---2---------2--3-3-----3-3-------3-----7-------------------|
|-3-2-0--0---0-2--3-2-0---5---0---5-3-5------------------------0---5-------------------|
|----------3-----------------------------------0-0---------------------1-1-1-1-3-3-3---|

|----------------------------------1-----|
|---------------------3------------1-----|
|-------------------2---2----------2-----|
|-----------------0-------5--3-3---3-----|
|-3-2-0---3-2-0--------------------3-----|
|----------------------------------1-----|

 Henrik


 guitar-solo tabbed by PD. (1998)
|-5h6p5p3-5p3---------------------5h6p5p3-5---|
|-------------6p5-6p5h6p5h6p5-3---------------|
|---------------------------------------------|
|---------------------------------------------|
|---------------------------------------------|
|---------------------------------------------|


|-5h6p5p3-5p3---------------------------------|
|-------------6p5-6p5h6p5h6p5-3---5h6p5p3-5---|
|---------------------------------------------|
|---------------------------------------------|
|---------------------------------------------|
|---------------------------------------------|

|-5h6p5p3-5-----------------------------------|
|-------------6p5-6p5h6p5h6p5-3---2h3p2---2---|
|---------------------------------------4-----|
|---------------------------------------------|
|---------------------------------------------|
|---------------------------------------------|

|-----------------------------------------------------------------|
|-3h4p3---3---3h4p3---3---3h4p3---1h3p1---1---1h3p1---1---1h3p1---|
|-------5-----------5-------------------3-----------3-------------|
|-----------------------------------------------------------------|
|-----------------------------------------------------------------|
|-----------------------------------------------------------------|
|
|-5h6p5p3-5---5h6p5p3-5---5h6p5-----------------------------------|
|---------------------------------5h6p5p3-5---5h6p5p3-5---5h6p5---|
|-----------------------------------------------------------------|
|-----------------------------------------------------------------|
|-----------------------------------------------------------------|
|-----------------------------------------------------------------|

|--------------------------------|
|-0h1p0---0---0h4p0hphphp-5b7v---|
|-------2------------------------|
|--------------------------------|
|--------------------------------|
|--------------------------------|
|
|----------------------------------|
|-4h5p4p2-4---4h7p4hphphp-10b12v---|
|----------------------------------|
|----------------------------------|
|----------------------------------|
|----------------------------------|
38.Erik 04 Aug 2005 22:17

How Can I Go On


G                           D/C     C
When all the salt is taken from the sea

  F#7        Bm    Am7       D7    G
I stand dethroned, I'm naked and I bleed

                               D/C    C
But when your finger points so savegely

   B           B7      Em       E/A#    
Is anybody there to believe in me

   A            C/G  D  G     C        G/D  D  G  D#6/G   G
To hear my plea and...   take care...  of...   me?



             Em
How can I go on, From day to day

                Am7       D7    G
Who can make me strong in every way

               Em7               Bm
Where can I be safe, Where can I belong

        Am        Am7   Dsus2/4  D#dim  Em
In this great big world of sad-.........ness


How can I forget

      Am7       D7             G
Those beautiful dreams that we shared

B7           B7/D#                Em
They're lost and they're nowhere to be found

Am  C#dim     B     D7
    How can I go on?



G                             D/C    C
 Sometimes I start to tremble in the dark

  F#7    Bm       Am7    D7       G
I cannot see When people frighten me

                        D/C          C
I try to hide myself so far from the crowd

   B           B7
Is anybody there to comfort me

Em                      E             A            C/G    C/D  D7
Lord oh lord oh lord oh lord precious Lord hear my plea - yeah

G             D#6     G
Lord ... take care of me



How can I go on (how can I go on)
From day to day (from day to day)
Who can make me strong (who can make me strong)
In every way (in every way)
Where can I be safe (where can I be safe)
Where can I belong (where can I beelong)
In this great big world (in this great big world of sadness)
How can I forget (how can I forget)
Those beautiful dreams that we shared (those beautiful dreams that we shared)

B7               B7/D#         Em  Em/G
They're lost and nowhere to be found

Am  C#dim     B  D7  
    How can I go on?

G  D#6/G   G   D#6  G  D#6/G   G   D#6

G          Am           C         D  
  Di di di di di di di   Di di di di di di di di di





Transcriped by Erik S.
39.woody 16 Aug 2005 22:46
"Excuse me folks, I hezitated to update three tabs/chords:
 White Queen, Jealousy, Prophet Song, Lilly Of The Walley, One Vision.
 Maybe next time. Fortunately they are available here on the forum.   "

why not WQ or One Vision?
Prophet's song still needs alot of work and correction, but I didn't have enough time, so I rushed it.
40.PD 17 Aug 2005 12:25
Those tabs are combining my old tabs with new material (chords, vocal tabs) I need some time to check them. It may be better to publish the new material separated from the old tabs. I mean: separated prophet-chords, prophets-vocals, etc. I didnt have time to make this check.
One Vision looks to be needing some editing.
41.woody 05 Oct 2005 18:09
Well I see that all of them have been updated . BUT ONE: my Father To Son tab ........why?????
42.Tea Of Deaky 14 Oct 2005 01:03
Erik! La Japonaise chords! You are the new God, all hail! What a song, how does Freddie come up with that stuff - personally I think it's as good, if not better in certain ways, than Bo Rhap *good Lord* Still, as a pianist I'm quietly rejoicing, so thank you for making my day! waahoo!!
43.Erik 14 Oct 2005 18:33
Hi Tea of Deaky!

Thank you my friend! Nice for me if you are enjoying! They really are funny chords to play with piano and if you sing same time it feels even better.
44.vincentvdakker 17 Oct 2008 15:02

Thanx a lot for this !

pages 1