HOME FORUM

Login






Register
Search
List of users


PLEASE NOTE THAT THIS FORUM IS TAKEN FROM PREVIOUS VERSION OF QUEEN SONGS SITE.
Path: Queen Songs - Forum - Tabs & Chords: See What Fool Ive Been TABBookmark and Share

Forum

--- Only registered users can post a message ---pages 1
HenrikBjörklund: See What Fool Ive Been TAB04 Nov 2004 18:58

                 
                                                 See What Fool Ive Been
                                              Words and Music by Brian May


|-------------|--------------------------------------------------|
|--9--10------|--9---7__-----------------------------2-----------|
|--9---9--o/--|--9---7__-------6-----4--4---------5--3--0-----0--|
|--9--11--/o--|--9---7__--4----6--6--4--4---------5--2--2--2--0--|
|--7---9------|--7---5__--2--2----2--2--2--0------3--4--0--2--7--|
|-------------|----0-------------------------3-0-----------0--0--|
          2x
|-----------------------------------------------------------------------------------------|
|--2--4-----------------------------------------------------------------------------------|
|--2--4-----------------------------------------------------------------------------------|
|--2--4----------------------99999999999--9-9--11-11--9-9--11-11--------------------------|
|--0--2--2-2--4-4--2-2--4-4--99999999999--7-7---7--7--7-7---7--7--9-9--11-11--9-9--11-11--|
|--------0-0--0-0--0-0--0-0--77777777777--------------------------7-7---7--7--7-7---7--7--|

|-------------------------------------------------------------------------|
|-------------------------------------2--4--------------------------------|
|--12---------------------------------2--4--------------------------------|
|------14-----------------------------2--4-------------------99999999999--|
|----------12b--10------12br--10------0--2-------------------99999999999--|
|-------------------12------------12--------7-7-6-6-5-5-4-4--77777777777--|
             
|--------------------------------------------------15---------------------------------|
|------------------------------------------------------17-----------------------------|
|----------------------------------------------------------14--12b------14br--12------|
|--9-9--11-11--9-9--11-11-------------------------------------------14------------14--|
|--7-7---7--7--7-7---7--7--9-9--11-11--9-9--11-11-------------------------------------|
|--------------------------7-7---7--7--7-7---7--7-------------------------------------|

|-----------------------------------------|
|--2--4-----------------------------------|
|--2--4-----------------------------------|
|--2--4----------------------99999999999--|
|--0--2--2-2--4-4--2-2--4-4--99999999999--|
|--------0-0--0-0--0-0--0-0--77777777777--|
             
|-----------------------------------------------------------------|
|-----------------------------------------------------------------|
|-----------------------------------------------------------------|
|--/9-99999--/9-99999----------------------/9-99999--/9-99999-----|
|--/7-77777--/7-77777--/9-99999--/9-99999--/7-77777--/7-77777...--|
|----------------------/7-77777--/7-77777-------------------------|

 E (VII) B (VII)
             
|--------------------------------------------------|
|--------------------------------------------------|
|--------------------------------------------------|
|--9-9--11-11--9-9--11-11--------------------------|
|--7-7---7--7--7-7---7--7--9-9--11-11--9-9--11-11--|
|--------------------------7-7---7--7--7-7---7--7--|

|------------------------------------------------------------------------|
|------------------------------------2--4--------------------------------|
|-12---------------------------------2--4--------------------------------|
|-----14-----------------------------2--4-------------------99999999999--|
|---------12b--10------12br--10------0--2-------------------99999999999--|
|------------------12------------12--------7-7-6-6-5-5-4-4--77777777777--|

 E (VII) B (VII)  

|-------------------------------------------------------------------------------------|
|-----------------------------------------------------------------------------2--4__--|
|------------------------------------------12---------------------------------2--4__--|
|----------------------4-4--6-6--4-4--6-6------14-----------------------------2--4__--|
|--2-2--4-4--2-2--4-4--2-2--2-2--2-2--2-2----------12b--10------12br--10------0--2__--|
|--0-0--0-0--0-0--0-0---------------------------------------12------------12----------|

|--9b10--9-7---------------------------------------------|
|-----------10-8-------------------------------12--4-5_--|
|----------------9-7tr9-----9-9-11-11b12r11--9-----6-7_--|
|-------------------------9------------------------5-6_--|
|--------------------------------------------------6-7_--|
|--------------------------------------------------------|

                               

pages 1