HOME FORUM

Login






Register
Search
List of users


PLEASE NOTE THAT THIS FORUM IS TAKEN FROM PREVIOUS VERSION OF QUEEN SONGS SITE.
Path: Queen Songs - Forum - Tabs & Chords: Get Down Make Love TABBookmark and Share

Forum

--- Only registered users can post a message ---pages 1
HenrikBjörklund: Get Down Make Love TAB04 Nov 2004 18:46
Get Down Make Love
                                   Words and Music by Freddie Mercury
               Some Licks
                
               0:30       0:47      0:50 0:56   1:03               
              |---------|---------|-----------|-----------------|
              |--14pbr--|---------|-----------|-----------------|
              |---------|----4/6--|--8--------|--6-6-6-6-8-8-8--|
              |---------|---------|--8--------|-----------------|
              |---------|--6------|--6--------|-----------------|
              |---------|---------|-----------|-----------------|
               

                1:25           1:31          1:43           
              |---------------|-------------|--------------------|
              |---------------|-------------|--------------------|
              |---------------|-------------|--6pbr--------------|
              |---------------|-------------|--------------------|
              |---------------|--6----------|-------6h8p6trdown--|
              |--0trdown------|-------------|--------------------                              
Volume control
                               fade in/out

               1:47     1:56  2:05                         2:11                  
              |-------|-----|----------------------------|-----------|
              |--14b--|-----|----------------------------|-----------|
              |-------|-----|------8-----8-----8-----8\--|-----------|
              |-------|--6--|--6h8---6h8---6h8---6h8-----|--------6--|
              |-------|--6--|----------------------------|--6-7-8----|
              |-------|--4--|----------------------------|-----------|

             
               2:15    3:21            3:28      3:31
              |-------|--------------|---------|-------|
              |-------|--------------|---------|-------|
              |----8--|---------6b~--|--8\6/8--|-------|
              |----8--|--------------|--8\6/8--|--6\4--|
              |--6-6--|----4-6-------|--6\4/6--|--6\4--|
              |-------|--6-----------|---------|--4\2--|


              Play G in the Choruses

              trdown: Press down the tremolo Bar
     
              Henrik
pages 1