HOME FORUM

Login






Register
Search
List of users


PLEASE NOTE THAT THIS FORUM IS TAKEN FROM PREVIOUS VERSION OF QUEEN SONGS SITE.
Path: Queen Songs - Forum - Tabs & Chords: I Go Crazy TabBookmark and Share

Forum

--- Only registered users can post a message ---pages 1
HenrikBjörklund: I Go Crazy Tab03 Nov 2004 17:00

I Go Crazy   
Words and Music by Brian May


A  A/D                                         D
I took my baby dancing - to see a heavy band
A  A/D
But I never saw my baby 'til the encore
                                 D
She had the singer by the hand
  B
I didn't wanna cry cos I had to be cool
  D                          
I didn't wanna tell you that you're much too cruel
  E                                                A E A E A E
Did you have to run off with that doggone fool...


A  A/D
 All I gotta do is think about you
                                D
Every night and day I go crazy
A A/D                                               
All I gotta do is get my hands on you
                                     D
You better stay away from me baby...


A  A/D                                                        D
I wouldn't mind the postman - if the neighbours didn't know
A A/D                                                                 
Or the gas man,electric man,man to fix the car
                        D
I'd have to let it go
B
But you had to bring me down for a rock'n'roll clone
D
Leave me like a sucker standing all alone
E                                                   A E A E A E
Did you have to run off with that rolling stone?

Go ahead fool


Chorus
               (E)VII
              |--------------------------------|  
A D A D C# B  |--------------------10-9--10-9--|
              |---------------------9-9---9-9--| 
              |--7--9---7---6------------------| 
              |---7---7---7---7----------------| 
              |--------------------------------| 

     
    A  A/D
So I ain't gonna go and see the Rolling Stones no more

I don't wanna go and see Queen no more no more

I ain't gonna go and see the Rolling Stones no more

I don't wanna go and see Queen no more no more

 
Slide Solo (not 100% accurate)
|-------------------------------------------------|
|--/14141414\--/14141414\--14\12-14\12-14\12-/14--|
|--/14141414\--/14141414\--14\12-14\12-14\12-/14--|
|--/14141414\--/14141414\--14\12-14\12-14\12-/14--|
|-------------------------------------------------|
|-------------------------------------------------|

|-----------------------------------------------------------|
|-12/1414141414\12--12/1414141414\12--12/1414141414\12--12--|
|-12/1414141414\12--12/1414141414\12--12/1414141414\12--12--|
|-12/1414141414\12--12/1414141414\12--12/1414141414\12--12--|
|-----------------------------------------------------------|
|-----------------------------------------------------------|

|--------------------------------------------------------------|
|---/1414141414/17171717\14141414--14\12-14\12-14\12-14\12-\7--|
|---/1414141414/17171717\14141414--14\12-14\12-14\12-14\12-\7--|
|---/1414141414/17171717\14141414--14\12-14\12-14\12-14\12-\7--|
|--------------------------------------------------------------|
|--------------------------------------------------------------|

|---------------------------17\---17\----------|
|----------------------------------------------|
|--/14--/14--/17--/14--/14--------------/14----|
|----------------------------------------------|
|----------------------------------------------|
|----------------------------------------------|



A A/D                                                      D
Now I don't wanna hurt you - like you been a-hurting me 
A A/D
But you know I'll be watchin' 
                                              D
Rolling on the floor next time you're on TV
B
Had enough of your pretending that you know where it's at
D
Coming on to all the boys like a real spoilt brat
E                                                   A E A E A E
To think I nearly let you get away with all that      

No way man    


Chorus


A A/D then A D  A D  A D  A D  |-----------------------------------------------|
                               |--------------------------------------------2--|
                               |--------------------------------------------2--|
                               |--------------------------------------------2--|
                               |--3-0-3-0-----3-0-3-0------3-0-3-0----3-0---0--|
                               |----------3-----------3------------3------3----|



 Henrik


             

pages 1