HOME FORUM

Login






Register
Search
List of users


PLEASE NOTE THAT THIS FORUM IS TAKEN FROM PREVIOUS VERSION OF QUEEN SONGS SITE.
Path: Queen Songs - Forum - Tabs & Chords: TabsBookmark and Share

Forum

--- Only registered users can post a message ---pages 1
PD: Tabs09 Nov 2002 16:14
Tabs - what else can one expect from me :)

There aren't many new tabs in sight. I've found a couple of new basstabs at
www.basstabarchive.com
but before I let those put here, I'm tempted to ask the tabber to check/improve them.
 
As for me:
One vision: I've tabbed some solos from the Wembley/86 version. (sorry for the long lines)
Friends Will Be Friends: minor modfication on the solo.
I don't know when these will be updated. I have some other tab-plans for later.

One Vision/ Wembley:


Intro-solo
----------------13b14--10vv------12b__13r12p10-12----10----------------------------------------------------------
-13b15vvv-----------------------------------------------10-13b15---13p10-13p10-13p10-----------------------------
-------------------------------------------------------------------------------------13p12p10---12-12-10---------
-----------------------------------------------------------------------------------------------------------12\---
-----------------------------------------------------------------------------------------------------------------
-----------------------------------------------------------------------------------------------------------------


-15b17rbv--b17r15p14------b17r15p14-15---12-------------------------12b13__r12p10------------------------
---------------------15---------------------13---12---(---------)-----------------13---------------------
------------------------------------------------------(----14-0-)--------------------12b14vvvr12p10------
------------------------------------------------------(-14------)-----------------------------------12---
---------------------------------------------------------------------------------------------------------
---------------------------------------------------------------------------------------------------------


the off-beat chromatic riff:

 4   1   2   3   4   1         : 4/4 beats
-------------------------------
-------------------------------
-------------------------------
-------------------------------
---0---1---2---3---4-5---------
-------------------------------



"Black or white" riff:
---------------------
-10---10-8-----------
-10---10-9-----------
-10---10-10---7------
-8----------5-5-...--
---------------------
or something like this.


"Dark rain falls" chords:
xx0331 xx0553


"I'm ready" riff:
----------------------------------
-12-12-10-10----------------------
-12-12-10-10----------------------
-12-12-10-10----12-12-12-10-10...-
-------------10----10-10--8--8...-
----------------------------------


"one nation" riff:
-----x-----x-----x--------------------
-5---x-----x-5---x------5-------2...--
-5---x-4---x-5---x-4----5---4---2...--
-5-----5-----5-----5----5---5---2...--
-3-----5-----3-----5----3---5---0...--
-------3-----------3--------3---------
(3+3+3+3+4 rhythmic pattern)


Passages from the solo:
--------------------------------------------------------------|
-19b21_____r-17-19p17-19p17----17-----------------------------|
----------------------------20----20p19p17----19----17b-------|
-------------------------------------------19----19-------19--|
--------------------------------------------------------------|
--------------------------------------------------------------|

...

-20b22___r20p17-20p17-19p17-18p17------------------------------------------------------------------------------------
----------------------------------20-20b22vvv___r20p17-20p17-19p17-18p17----17---------------------------------------
-------------------------------------------------------------------------20----20p19p17----19----17-17---------------
----------------------------------------------------------------------------------------19----19-------19-17----17---
-------------------------------------------------------------------------------------------------------------19------
---------------------------------------------------------------------------------------------------------------------

closing:
-------10-------10...
-13b15----13b15---...
------------------
------------------
------------------
------------------


xx0331, xx0330...



"Gime one light..."
x3555x - x3536x - x3555x

    4 1 2 3 4 1 2 3 4 1 2 3 4 1 2 3 4 1 2 3 4 1 2 3 4 1 2 3 4 1 : 8/8
---------------------------------------------------------------
---------------------------------------------------------------
---------------------------------------------------------------
---------------------------------------------------------------
----0-------1-------2-------3-------4-------0-----1---2-3---4-5
---------------------------------------------------------------

PD. nov. 2002
_________________________________________________________________
Queen: friends will be friends
solo:

-----------------------------------------------------3------3-----------------------------------
-----------------1---1-------5____\3-3_______--------3------3---------------5h6-5____\3---3h4-3-
-------------------------------5__\3---3______-0-----4------4---------------5---5____\3---3---3-
-5------5---3------3---3-3/5-----5\3-----3____\0-----5------5---3-----/-x---5h7-5____\3-3-3h5-3-
-5------5---3-----------------------------------(0)--5----5-----3-----/-x-----------------------
-3----3-3---1----------------------------------------3----------1-------------------------------

-----------------------------------------------------------------12---------------
-----------------------------------------------------------12-15------------------
-----------___-7-9/11-7----9-11-12v---11-12-14v---12-14-14----------16r14--12-----
-----5---5-7/9----------------------------------------------------------------14--
-5h7------------------------------------------------------------------------------
----------------------------------------------------------------------------------

-------12----------------------------------------------------------------------
-----------------------___________----________----  _______----  ____--------8-
-12-14----14b16-14-----12h14p12\11____h12p11\9---9__h11p9\7---7__h9p7------7---
----------------------------------------------------------------------10-9-----
-------------------------------------------------------------------------------
-------------------------------------------------------------------------------

----------------------------------10b12----10-8-7--------
-10b12___r10p8-10---12r10p8-7-8-------------------10-8...
---------------------------------------------------------
---------------------------------------------------------
---------------------------------------------------------
---------------------------------------------------------
PD. 1997, 99, 02
pages 1