HOME FORUM

Login






Register
Search
List of users


PLEASE NOTE THAT THIS FORUM IS TAKEN FROM PREVIOUS VERSION OF QUEEN SONGS SITE.
Path: Queen Songs - Forum - Tabs & Chords: TabBookmark and Share

Forum

--- Only registered users can post a message ---pages 1
Daniel: Tab20 Sep 2004 23:12

One vision   live magic

                                                                       
E||------------------|-----------------------|------------------------|
B||------------------|-----------------------|------------------------|
G||------------------|-----------------------|------------------------|
D||------------------|--7/---x----x--7----7--|--7----x--x--x--5----5--|
A||------------------|--5/---x----x--4----5--|--5----x--x--x--2----3--|
E||------------------|-----------------------|------------------------|


                                                                     
-----------------------|----------------------|---------------------|
-----------------------|----------------------|---------------------|
-----------------------|----------------------|---------------------|
--5----x----x--5----5--|--5------7----7--7----|--7/---------7----7--|
--3----x----x--2----3--|--3------4----5--5----|--5/---------4----5--|
-----------------------|----------------------|---------------------|


                                                                     
----------------------|----------------------|----------------------|
----------------------|----------------------|----------------------|
----------------------|----------------------|----------------------|
--7/-------x--5----5--|--5------5--5------5--|--5------7----7--7----|
--5/-------x--2----3--|--3------2--2------3--|--3------4----5--5----|
----------------------|----------------------|----------------------|


                                                                         
---------------------|------------------------|---------------19~-------|
---------13~---------|--15r-----------17r--15-|--17~--------------------|
---------------------|------------------------|--------0/-16------------|
--7/-----------------|------------------------|-------------------------|
--5/-----------------|------------------------|-------------------------|
---------------------|------------------------|-------------------------|


                                         
----17--15--14--15--17------------------|
------------------------15--17b---19/---|
----------------------------------------|
----------------------------------------|
----------------------------------------|
----------------------------------------|


                                                                             
-----------10--------------------------|-------------------------------------|
----13~-------13-12--------------------|-------------------------------------|
--------------------12r-10----12----10h|--11----------10---------------------|
---------------------------12----12----|-----12h10---------------------------|
---------------------------------------|-----------12----10-8----------------|
---------------------------------------|----------------------10~-10/-----8--|


                                                                   
----------------------|----------------------|---------------------|
----------------------|----------------------|---------------------|
----------------------|----------------------|--7------------------|
----------------------|----------------------|--7----------7----7--|
----------------------|----------------------|--5----------4----5--|
--8~-----7--7~-----8--|--8~-----9~---10/-----|---------------------|


                                                                   
---------------------|----------------------|----------------------|
---------------------|----------------------|----------------------|
---------------------|----------------------|----------------------|
--7----------5----5--|--5------5--5------5--|--5------7----7--7----|
--5----------2----3--|--3------2--2------3--|--3------4----5--5----|
---------------------|----------------------|----------------------|


                                                                   
---------------------|---------------------|----------------------|
---------------------|---------------------|----------------------|
--7------------------|---------------------|----------------------|
--7----------7----7--|--7----------5----5--|--5------5--5------5--|
--5----------4----5--|--5----------2----3--|--3------2--2------3--|
---------------------|---------------------|----------------------|


                                                                         
-----------------------|--10--------------------|-----------------------|
-----------------------|--10----------10----10--|--10----------8----8---|
-----------------------|--11----------9-----11--|--11----------7----9---|
--5------7-----7--7----|--12----------11----12--|--12----------9----10--|
--3------4/-5--5--5----|------------------------|-----------------------|
-----------------------|------------------------|-----------------------|


                                                                       
------------------------|------------------------|--------------------|
--8-------8--8------8---|--8---------------------|-----------------3--|
--9-------7--7------9---|--9---------------------|--2--------------2--|
--10------9--9------10--|--10------7-----7--7/---|--2--------------4--|
------------------------|----------4/-5--5--5/---|--0-----------------|
------------------------|------------------------|--------------------|


                                                                     
---------------------|--------------------|-------------------------|
--3------------------|-----------------2h-|--3h-2h-3h-2h-3h-2-------|
--2------------2--2--|--2--------------2--|-------------------------|
--4---------------2--|--2--------------2h-|--4h-2h-4h-2h-4h-2----5--|
--0------------------|--0-----------------|----------------------3--|
---------------------|--------------------|-------------------------|


                                                                         
----------------------|-----------------------|-------------------------|
----------------------|-----------------------|-------------------------|
--5-------------5--3--|----2------------------|----------5--------------|
--5----------5--------|-------3--5----3----2--|-------5--5--5--0--x--2--|
--3-------------------|-----------------------|----3--------------x--0--|
----------------------|-----------------------|-------------------------|


                                                                     
----------------------|----------------------|-----------------------|
----------------------|----------------------|-----------------------|
----------------------|----------------------|-----------------------|
----------------------|--7/-------x--7----7--|--7----x----x--5----5--|
----1----2~---3~---4--|--5/-------x--4----5--|--5----x----x--2----3--|
----------------------|----------------------|-----------------------|


                                                                   
--------------------|-----------------------|---------------------|
--------------------|----6------------------|---------------------|
--------------------|----5------5--------7--|---------------------|
--5-----------------|----3---------5-----7/-|----------x--7----7--|
--3-----------------|-----------------5--5/-|----------x--4----5--|
-----------3--------|-----------------------|---------------------|


                                                                       
----------------------|------------------------|----------------------|
----------------------|------------------------|----------------------|
----------------------|------------------------|-----------------7/---|
--7--------x--5----5--|--5-------5--5-------5--|--5------7----7--7/---|
--5--------x--2----3--|--3h---0--2--2----0--3--|--3------4----5--5/---|
----------------------|------------------------|----------------------|


                                                               
--------------------|--------------------|--------------------|
-----------------3--|--3--------------2--|-----------------2h-|
--2--------------2--|--2--------------2--|--2--------------2--|
--2--------------4--|--4--------------2--|--2--------------2h-|
--0-----------------|--0-----------------|--0-----------------|
--------------------|--------------------|--------------------|


                                                                         
--------------------------|-----------------------|----------------------|
--3h-2h-3h-2h-3h-2h-3-----|-----------------------|-------5b----------5--|
-----------------------5--|--5----5----------5----|-------------------5--|
--4h-2h-4h-2h-4h-2h-5--5--|--5----5----2--5--5----|----3-----------3--5--|
-----------------------3--|--3----3---------------|----------------------|
--------------------------|-----------------------|----------------------|


                                                                 
---------------------|----------------------|-------------------|
---------------------|----------------------|-------------------|
---------------------|----------------------|--7/---------------|
------------5-----2--|----------------------|--7/---------------|
---------------3--0--|----1----2~---3~---4--|--5/---------------|
---------------------|----------------------|-------------------|


                                                                               
------------------|------------------|--------------------|-------------------|
------------------|------------------|--------------------|-------------------|
------------------|------------------|--------------------|--7----------------|
------------------|------------------|--------------------|--7----------------|
------------------|------------------|--------------5r--3-|--5----------------|
------------------|------------------|--------------------|-------------------|


                                                                             
------------------|------------------|------------------|--1----------------|
------------------|------------------|------------------|--3----------------|
------------------|------------------|------------------|--3----------------|
------------------|------------------|------------------|--0----------------|
------------------|------------------|------------------|-------------------|
------------------|------------------|------------------|-------------------|


                                                                               
--3----------------|--1----------------|--3----------------|--1----------------|
--5----------------|--3----------------|--5----------------|--3----------------|
--5----------------|--3----------------|--5----------------|--3----------------|
--0----------------|--0----------------|--0----------------|--0----------------|
-------------------|-------------------|-------------------|-------------------|
-------------------|-------------------|-------------------|-------------------|


                                                                 
--0----------------|--------------------|------------------------|
--3----------------|--------13~---------|-----17r-15-17~---------|
--3----------------|--------------------|------------------------|
--0----------------|--------------------|------------------------|
-------------------|--------------------|------------------------|
-------------------|--------------------|------------------------|


   t      t    t     t    t     t    t    t     t    t     t                
-----------------------------------------------------------------|
--13h-11-13h10-13h9-13h8-----------------------------------------|
-------------------------13h11-13h10-13h8------------------------|
------------------------------------------15h10-15h8-------------|
-----------------------------------------------------15h10-15h8--|
-----------------------------------------------------------------|


                                                                     
---------------------|-----------------------|-----------------------|
---------------------|-----------------------|-----------------------|
---------------------|-----------------------|-----------------------|
----------------0----|--7----x----x--7----7--|--7----x----x--5----5--|
--6-------------0----|--5----x----x--4----5--|--5----x----x--2----3--|
-------1-------------|-----------------------|-----------------------|


                                                                       
------------------------|---------------------|-----------------------|
------------------------|---------------------|-----------------------|
-----7--7/-5--5---------|---------------------|-----------------------|
--5--5--5/-3--3---------|---------------------|--7----x----x--7----7--|
--3------------------5--|--5/-3--3------------|--5----x----x--4----5--|
---------------------3--|--3/-1--1------------|-----------------------|


                                                                         
-----------------------|-----------------------|-------------------------|
-----------------------|-----------------------|-------------------------|
-----------------------|-----------------------|-------------------------|
--7----x----x--5----5--|--5----x-------x--5----|--x-------x--5-----------|
--5----x----x--2----3--|--3----x--5----x--3----|--x--5----x--3--0/-12/---|
-----------------------|----------3------------|-----3-------------------|


                                                               
--------------------|--------------------|--------------------|
-----------------2--|--3-----------------|-----------------2h-|
--2--------------2--|--2--------------2--|--2--------------2--|
--2--------------2--|--4--------------2--|--2--------------2h-|
--0-----------------|--0-----------------|--0-----------------|
--------------------|--------------------|--------------------|


                                                                 
-----------------------|-------------------|--------------------|
--3h-2h-3----3h-2------|--2----------------|--3-----------------|
-----------------------|--2----------------|--2-----------------|
--4h-2h-4----4h-2------|--2----------------|--4-----------------|
-----------------------|--0----------------|--0--------------0--|
-----------------------|-------------------|--------------------|


                                                                   
------------------------|----------------------|-------------------|
----5/-3--2--2--0----2--|--3-------------------|--3----------------|
----x--x--2--2--0----2--|--0----0----0----0----|--2----------------|
----5/-4--2--2--0----2--|--0----0----0----0----|--0----------------|
-------------0----------|-------x----x----x----|-------------------|
------------------------|-------3----3----3----|-------------------|


                                                                   
-------------------|--17----17----17----------|-------------------|
-------------------|--20~---20~---20~---20~---|-------------------|
----------0--------|--------------------------|-------------------|
-------------------|--------------------------|-------------------|
-------------------|--------------------------|-------------------|
-------------------|--------------------------|----0--------------|


                                                                   
--------------------|-------------------|--------------------------|
--------------------|-------------------|----18b-----19/-------19~-|
--------------------|-------------------|------------------16------|
--------------------|-------------------|--------------------------|
--0------0----------|--0----------------|--------------------------|
--------------------|-------------------|--------------------------|


                                                               
--------------------|---------19b---------|--------20~---------|
------------20~-----|----0----------------|--------------------|
--------------------|---------------------|--------------------|
--------------------|---------------------|--------------------|
--------------------|---------------------|--------------------|
--------------------|---------------------|--------------------|


                                                 
---17-20h17-20h17-19h17-18h17----17-------------|
------------------------------20----20h17-19h17-|
------------------------------------------------|
------------------------------------------------|
------------------------------------------------|
------------------------------------------------|


                                                 
-----17----17------------------------------------|
--18---------------------------------------------|
--------20------19-17----19----17----------------|
--------------0-------19----19----19h17----17----|
----------------------------------------19----19h|
-------------------------------------------------|


                                                                 
----------------------------------|-----------------------------|
----------------------------------|-----------------------------|
--------------------19--17/-------|------17b19/-----16h0----17r-|
--------------19-19---------------|--2--------------------------|
--17h15-17h19---------------------|--0-------------------x------|
----------------------------------|-----------------------------|


                                                                         
----------------------|------------------------|-------------------------|
-----------------0----|--15b---0---------------|-------------------------|
------0----17b---0----|--------0---------------|-------------------------|
-----------------0----|-------------------0----|----0--------------------|
----------------------|-------------------0----|----0--------------------|
----------------------|----------3---0---------|-------3--2--0--3--3--0--|


                                               
-----20~---------------|----------------------|
--------------------0--|----------x-----20~---|
-----------------------|----------x-----------|
-----------------0-----|----------x-----------|
-----------------------|-------------0--------|
--3--------------------|----------------------|


                                           
------------------------------------------|
------20h17----17-20h17-19h17-18h17----17-|
------------19----------------------20----|
------------------------------------------|
------------------------------------------|
------------------------------------------|


                                                 
-------------------------------------------------|
-------------------------------------------------|
--21-19-17-----19----19----19----17b-19-19-19r17-|
-----------19-----19----19----19-----------------|
-------------------------------------------------|
-------------------------------------------------|


                                               
----------------------------------------------|
----------------------------------------------|
--19r17-19--19-17-19-17b-19-17b19-17b19-17b19-|
----------------------------------------------|
----------------------------------------------|
----------------------------------------------|


                                                                             
-------------------------------------|-------------------|--0----------------|
-------------------------------------|--3----------------|--3----------------|
--19-17-17b19--19-17b19-17-19/-------|--3----------------|--3----------------|
--------------------------------0----|--0----------------|--0----------------|
-------------------------------------|-------------------|-------------------|
-------------------------------------|-------------------|-------------------|


                                                               
--1----------------|--0-------------------|--------------------|
--3----------------|--3-------------------|--2--------------2h-|
--3----------------|--3----------13r-0----|--2--------------2--|
--0----------------|--0--------------0----|--2--------------2h-|
-------------------|----------------------|--0-----------------|
-------------------|----------------------|--------------------|


                                                                   
--------------------|--------------------|-------------------------|
--3-----------------|--2--------------2h-|--3h-2h-3h-2h-3h-2-------|
-----------------2--|--2--------------2--|----------------------5--|
--4--------------2--|--2--------------2h-|--4h-2h-4h-2h-4h-2----5--|
-----------------0--|--0-----------------|----------------------3--|
--------------------|--------------------|-------------------------|


                                                                               
-------------------|-------------------|-------------------|-------------------|
-------------------|-------------------|-------------------|-------------------|
----------------3--|----------------5--|----------------3--|----------------5--|
----------------3--|----------------5--|----------------3--|----------------5--|
----------------3--|----------------3--|----------------3--|----------------3--|
-------------------|-------------------|-------------------|-------------------|


                                                                   
---------------------|---------------------|----------------------|
---------------------|---------------------|----------------------|
------------0h-2--2--|---------------------|-------------------2--|
------------0h-2--2--|---------------------|-------------------2--|
------------------0--|--------1~-----0--2~-|------0--3~-----0--0--|
---------------------|---------------------|----------------------|


                                                               
----------------------|-------------------|-------------------|
----------------------|-------------------|--8----------------|
----------------------|--7/---------------|--8----------------|
----------------------|--7/---------------|--8----------------|
----1----2~---3~---4--|--5/---------------|--6----------------|
----------------------|-------------------|-------------------|


                                                               
--------------------|-------------------|----------------------|
-----------9--------|-------------------|--11------------------|
------8----6--------|-------------------|--11------------------|
------8----6--------|--------------8/---|--11--------------11--|
-----------6--------|--------------8/---|--9-------------------|
--------------------|-------------------|----------------------|


                                                                 
------------------------------|---------------------------------|
--12--------12--------11------|------12---------12----------11--|
------9---------9---------11--|----------9----------11----------|
---------9---------9----------|--11---------11----------11------|
------------------------------|---------------------------------|
------------------------------|---------------------------------|


                                                                   
-----------------------------|------------|------------------------|
----------12---------11------|--11/-------|--14--14--14~-----------|
--11----------9------11------|--11/-------|--14--14--14~-----------|
------11---------11--11------|--11/-------|--14--14--14~-----------|
-----------------------------|------------|--12--12--12------------|
-----------------------------|------------|------------------------|


                                                                       
-----------15--------|--15----15----15--------|--15----15----15--------|
-----------15b-------|--15b---15b---15b-------|--15b---15b---15b-------|
--0------------------|------------------------|------------------------|
--0------------------|------------------------|------------------------|
--0------------------|------------------------|------------------------|
---------------------|------------------------|------------------------|


                                                                         
--15--------|--------------------|------------------|--------------------|
--15b-------|--16~---------------|------------------|----------16/-------|
------------|--16~---------------|------------------|----------16/-------|
------------|--16~---------------|------------------|----------16/-------|
------------|--14~---------------|------------------|----------14/-------|
------------|--------------------|------------------|--------------------|


                                                                 
--------------------|--------------------|----------------------|
--2--------3--------|--------------------|----------------------|
--2--------0--------|--------------------|----------------------|
--2--------0--------|--2~----------------|----------------------|
--0--------2--------|--3~-------4~-------|--5~---6~---7~---8~---|
--------------------|--------------------|----------------------|


                                                                           
-------------------------------|--------------------|----------------------|
-------------------------------|--------------------|--13~--------------10-|
-------------------------------|--------------------|----------------------|
-----------------8~-9~-10~-11~-|--12~---------------|----------------------|
--9~-10~-11~-12~---------------|--------------------|----------------------|
-------------------------------|--------------------|----------------------|


                                                       
-------------------------------------------------------|
--13h10-13h10-------------------10---------------------|
--------------13h12h10----12----10---------------------|
-----------------------12----12----12h10----10---------|
-----------------------------------------12----12h10h8-|
-------------------------------------------------------|


                                                       
--------------------------|------------------|-------||
--------------------------|------------------|-------||
--------------------------|------------------|-------||
--------------------------|------------------|-------||
--10h-8------8~-----------|------------------|--8/---||
---------10---------------|------------------|-------||


Also i have more Queen tabs but everithing in Guitar pro,   i found PT to hard to understand,   also  does anybody has something about the guitar of the choruses of It's Late, i only need to get chorus to end a tab, I couldn't understand Denes tab

1.woody 26 Sep 2004 16:29

The shape is more like D(V) and A(V), then C(III) and G(III), do not strike E strings...

i.e

Form...
|-5--5--3--3-|
|-7--5--5--3-|
|-7--6--5--4-|
|-7--7--5--5-|
|-7--7--5--5-|
|-5--5--3--3-|


But play...
|------------|
|-7--5--5--3-|
|-7--6--5--4-|
|-7--7--5--5-|
|-7--7--5--5-|
|------------|


It does sound a tiny bit better, but only
play this riff when you hear a different texture in the background,
i.e. more of a chord
Still play the riff youve got in versus mostly, also in the studio version as well.
PDs is still great........................


Good tab...

Woody.

pages 1