HOME FORUM

Login






Register
Search
List of users


PLEASE NOTE THAT THIS FORUM IS TAKEN FROM PREVIOUS VERSION OF QUEEN SONGS SITE.
Path: Queen Songs - Forum - Tabs & Chords: You Take My Breath Away - fingerstyleBookmark and Share

Forum

--- Only registered users can post a message ---pages 1
PD: You Take My Breath Away - fingerstyle30 Aug 2004 20:10

You Take My Breath Away

Here is a sketch of a fingerstyle version transposed to D-minor.

xx0768

|-5-----5-6-----10-5-----5-6-----10-------13-12-8-10-5---|
|-6---6-------8----6---6-------8----10-----------------6-|
|---7-------9--------7-------9---------10----------------|
|-0----------------0-------------------------------------|
|--------------------------------------------------------|
|--------------------------------------------------------|

repeat

|---------------------------------13---5-----5-6-----10-------13-12-8-10-5---|
|-6-------8-------10---------11---13---6---6-------8----10-----------------6-|
|-7---7-7-9---9-9-10---10-10-12----------7-------9---------10----------------|
|-0-------0--------0----------0--------0-------------------------------------|
|----------------------------------------------------------------------------|
|----------------------------------------------------------------------------|

|-3-3-6---5--------3-3-6---5--------3-3-6-5---------------------|
|-5-------6--------5-------6--------5---------------------------|
|---------7----------------7--------5-----5---------------------|
|---------0----------------0--------------3---------------------|
|-4----------------4----------------3---------------------------|
|---------------------------------------------------------------|

(second verse: "whisper in...")
|...-3------------|
|...-5-5----------|
|...-5---5-3-2----|
|...---------3----|
|...-3-------3----|
|------------1----|

|-3-3-3---3-----3-----3---3---5-1-----1-0-1---0-1-----1-0-1---3---|
|-3-----6-----6-------5-6-------------1---------------3-----------|
|-3-------------------5-------------2---------------4-------------|
|-----------------------------------------------------------------|
|-3---------3-----3---------------0---------0---------------------|
|-------------------------------------------------4---------4-----|

|-1---------------------------------5-----5-6-----10...-|
|-3---3-----------3-3-------3-1-----6---6-------8---...-|
|-3-------3-2-----3-------2-----2/7-7-7-------9-----...-|
|-------------5---------------------0-------------------|
|-------------------------------------------------------|
|-3-----------------------------------------------------|

Bridge
|-------------3-----3-------3-3-3-3-3---6---5-3---3---3---3-5-----1-------------------------|
|-----5---6---5---5---6---5---5-------6-------5-----6---6------------1----------1---1---1---|
|-7-----------5-5-----3---3---5-------3-------5--------------------------3-2----2---2---2---|
|---------------------------------------------------------------3------3------3---3---3---3-|
|-------------3-------3-------3-----------3---3---------------------------------------------|
|-------------------------------------------------------------1-----1--------1--------------|

|---------1-------2-2-2-2-5-------6-5-5-3-3-------6--------------1-|
|-3-------3-------1-------4-------3---------------6---10-8-6-5-----|
|-3-------3-------2-------5-------3---------------6----------------|
|-3---------------0------------------------------------------------|
|-1----------------------------------------------------------------|
|---------------------------------3---------5---6------------------|

1-----1-0-1---0-1---1-0-1---3---1---------------------------------5...|
|-----1-------------3-----------3---3--------------3------3-1-----6...|
|---2-------------4-------------3----------3-2-----3----2-----2/7-7...|
|----------------------------------------------5------------------0...|
|-0---------0---------------------------------------------------------|
|-----------------4-------------3-------------------------------------|

PD. 2004

pages 1