HOME FORUM

Login






Register
Search
List of users


PLEASE NOTE THAT THIS FORUM IS TAKEN FROM PREVIOUS VERSION OF QUEEN SONGS SITE.
Path: Queen Songs - Forum - Tabs & Chords: Vocal melody 'Under Pressure'Bookmark and Share

Forum

--- Only registered users can post a message ---pages 1
Sixstring: Vocal melody 'Under Pressure'13 Aug 2009 22:07

                                Under Pressure                                  


                                                                       By, Queen
Vocal Transcribed for Guitar


                                                                         
E||------|------|------|------|------|------|------|------|------|------|
B||------|------|------|------|------|------|------|------|------|------|
G||------|------|------|------|------|------|------|------|------|------|
D||------|------|------|------|------|------|------|------|------|------|
A||------|------|------|------|------|------|------|------|------|------|
E||------|------|------|------|------|------|------|------|------|------|


                     bah bah bah de                                         
------------------|----------------------|----------------------|
------------------|----------------------|----------------------|
------------------|----2--2--0-----------|----2--2--0-----------|
------------------|-------------4--------|-------------4--------|
------------------|----------------------|----------------------|
------------------|----------------------|----------------------|

                                             presure   pressing...
                                                                   
------------------------|------------------|----------------------|
------------------------|------------------|----------------------|
----2-2-2--2--2--0------|------------------|--0-------------------|
------------------------|------------------|-----4----------4--4--|
------------------------|------------------|----------------------|
------------------------|------------------|----------------------|


 down on me                                                                         
------------------------|--------------------------|---------------------|
------------------------|--------------------------|---------------------|
------------------------|--------------------------|---------------0--0--|
--4--2--2--4------2--2--|--2--0--0--0--0--0--0-----|---------------------|
------------------------|-----------------------2--|--0------------------|
------------------------|--------------------------|---------------------|


                                                                        
----------------------|------------------------|-----------------------|
----------------------|------------------------|-----------------------|
--0-------------------|------------------------|-----------------------|
-----4----------4--4--|--4--2--2--4------2--2--|--2--0--0--0-----------|
----------------------|------------------------|-----------------------|
----------------------|------------------------|--------------------3--|


                                                                     
----------------------|----------------------|----------------------|
----------------------|----------------------|-------------------2--|
----------------------|-----------2----------|----------2-----------|
----------------------|--0--0--0-------------|----------------------|
--0--0--0--2----------|----------------------|----4--4--------------|
----------------------|----------------------|----------------------|


                                                                          
-----------------------|--------3--2--0--------|-------------------------|
--3-----------2--3-----|-----------------------|--0--0--0----------------|
-----2--------------2--|-----------------2--2--|-----------2--0----0--2--|
-----------------------|-----------------------|-------------------------|
-----------------------|-----------------------|-------------------------|
-----------------------|-----------------------|-------------------------|


                                                                              
----------------------|--2----2----2----0-----0-----|------------------------|
--0-------0--3--------|--------------------3-----0--|-----3--3--0------------|
-------2--------------|-----------------------------|--2---------------2--2--|
----------------------|-----------------------------|------------------------|
----------------------|-----------------------------|------------------------|
----------------------|-----------------------------|------------------------|


                                                                       
--0-------------------|-----2------0----------|-----------------------|
---------0------------|---------------------0-|---------3-----------0-|
----------------2--2--|--2----------------2---|--2-----------2----2---|
----------------------|-----------------------|-----------------------|
----------------------|-----------------------|-----------------------|
----------------------|-----------------------|-----------------------|


                                                                     
---------0----------|--2--0---------------|-------------------------|
--------------------|--------3------------|-------------------------|
--2-----------------|---------------------|------------2-4-2--------|
--------------------|---------------------|-------------------4--0--|
--------------------|---------------------|-------------------------|
--------------------|---------------------|-------------------------|

           O-K....  
                                                            
------------2--0-----|------------------|------------------|
------------------3--|------------------|------------------|
---------------------|------------------|------------------|
---------------------|------------------|------------------|
---------------------|------------------|------------------|
---------------------|------------------|------------------|


                                                                


 (Insert) Bowie                                                         
------------------|------------------|------------------|
------------------|------------------|------------------|
------------------|-4--------6-----7-|------------------|
-4--5--7--------7-|------------------|------------------|
------------------|------------------|------------------|
------------------|------------------|------------------|


                                                                           

                                                                         
--------3--2--0--------|-------------------------|----------------------|
-----------------------|--0--0--0----------------|--0-------0--3--------|
-----------------2--2--|-----------2--0----0--2--|-------2--------------|
-----------------------|-------------------------|----------------------|
-----------------------|-------------------------|----------------------|
-----------------------|-------------------------|----------------------|


                                                                              
--2----2----2----0-----0-----|------------------------|--0-------------------|
--------------------3-----0--|-----3--3--0------------|---------0------------|
-----------------------------|--2---------------2--2--|----------------2--2--|
-----------------------------|------------------------|----------------------|
-----------------------------|------------------------|----------------------|
-----------------------------|------------------------|----------------------|


                                                                     
-----2------0----------|-----------------------|---------0----------|
---------------------0-|---------3-----------0-|--------------------|
--2----------------2---|--2-----------2----2---|--2-----------------|
-----------------------|-----------------------|--------------------|
-----------------------|-----------------------|--------------------|
-----------------------|-----------------------|--------------------|

               Turned away....         like a blind man
                                                                   
--------------------|------------------------|--------------------|
--------------------|------------------------|-------0------------|
----------------0---|--0------0---0------0-0-|--2-----------------|
------------------2-|-----------2------------|--------------------|
--------------------|------------------------|--------------------|
--------------------|------------------------|--------------------|


                                                                          
------------------------|---------------------|--------------------------|
------------------------|-------0-------------|--0--0--0--0--1--0--------|
----0--0---0--------0-0-|--2---------------0--|--------------------2--0--|
---------2--------------|---------------------|--------------------------|
------------------------|---------------------|--------------------------|
------------------------|---------------------|--------------------------|


  slashed and torn...                        why                                            
-------------------------|----------------------|--------------------|
----------0--------------|----------------------|-----------1--------|
--2----2-------2--0------|-----------0----------|------2-------------|
---------------------2-0-|--2-------------2--0--|--------------------|
-------------------------|----------------------|--------------------|
-------------------------|----------------------|--------------------|


                                                            
--0----------------|--3----------------|--3----------------|
-------------------|-------------------|-------------------|
-------------------|-------------------|-------------------|
-------------------|-------------------|-------------------|
-------------------|-------------------|-------------------|
-------------------|-------------------|-------------------|


                                       Insanity laughs                             
--5-------------------|-------------------|------------------------|
----------------------|-------------------|------------------------|
----------------------|-------------------|------------------------|
--2----2----2----2----|-------------------|-----------0---------0--|
----------------------|----------------4--|--4--2--4-------4-------|
----------------------|-------------------|------------------------|


                                                                            
-------------------------|-------------------------|-----------------------|
-------------------0-----|-------------------------|--------------0--------|
----------------0-----2--|--0-----0----------------|-----------------2--0--|
--2--0--2--4-------------|-----4-----4----4--4--4--|--4--2-----------------|
-------------------------|-------------------------|-----------------------|
-------------------------|-------------------------|-----------------------|

                                                   give love    
                                                                         
-------------------------|-----------------------|----------------------|
-------------------------|--------------0--------|----------------------|
--0-----0----------------|-----------------2--0--|--0---------0---------|
-----4-----4----4--4--4--|--4--2-----------------|-----4---------4------|
-------------------------|-----------------------|----------------------|
-------------------------|-----------------------|----------------------|


                                                                      
----------------------|----------------------|-----------------------|
----------------------|----------------------|-----------------------|
--2---------0---------|--0---------0---------|--0---------0----------|
-----4---------4------|-----4---------4------|-----4---------4-------|
----------------------|----------------------|-----------------------|
----------------------|----------------------|------------------2----|


                                                                  
---------------------|---------------------|---------------------|
---------------------|---------------------|---------------------|
---------------------|---------------------|---------------------|
---------------------|---------------------|---------0------2----|
----------------0----|--0------2------4----|--4------------------|
--2------3-----------|---------------------|---------------------|


                                                                   
---------------------|---------------------|----------------------|
---------------------|---------------------|----------------------|
---------------------|---------------------|----------------------|
---------0------2----|---------0------2----|--4----2----0---------|
--4------------------|--4------------------|-----------------4----|
---------------------|---------------------|----------------------|


                                                                  
---------------------|---------------------|---------------------|
---------------------|---------------------|---------------------|
---------------------|---------------------|---------------------|
---------0------2----|---------0------2----|---------0------2----|
--4------------------|--4------------------|--4------------------|
---------------------|---------------------|---------------------|


                                                                   
----------------------|---------------------|---------------------|
----------------------|---------------------|---------------------|
----------------------|---------------------|---------------------|
--4----2----0---------|---------0------2----|---------0------2----|
-----------------4----|--4------------------|--4------------------|
----------------------|---------------------|---------------------|


                                                                  
---------------------|---------------------|---------------------|
---------------------|---------------------|---------------------|
---------------------|---------------------|---------------------|
---------0------2----|---------0------2----|---------0------2----|
--4------------------|--4------------------|--4------------------|
---------------------|---------------------|---------------------|


                                                                
---------------------|---------------------|-------------------|
---------------------|---------------------|-------------------|
---------------------|---------------------|--0----------------|
---------0------2----|---------0-----------|-------------------|
--4------------------|--4-------------0----|-------------------|
---------------------|---------------------|-------------------|


                                                                            
------------------|------------------|------------------|------------------|
------------------|------------------|------------------|------------------|
------------------|------------------|------------------|------------------|
------------------|------------------|------------------|------------------|
------------------|------------------|------------------|------------------|
------------------|------------------|------------------|------------------|


                                                                 
------------------|------------------|------------------|------||
------------------|------------------|------------------|------||
------------------|------------------|------------------|------||
------------------|------------------|------------------|------||
------------------|------------------|------------------|------||
------------------|------------------|------------------|------||





Post was edited on 14 Aug 2009 04:00
pages 1