HOME FORUM

Login






Register
Search
List of users


PLEASE NOTE THAT THIS FORUM IS TAKEN FROM PREVIOUS VERSION OF QUEEN SONGS SITE.
Path: Queen Songs - Forum - Tabs & Chords: What are we made of? [Solo]Bookmark and Share

Forum

--- Only registered users can post a message ---pages 1
BadHorsie: What are we made of? [Solo]19 Dec 2008 01:46

e|----------10-11-10b11-------------4-3-1----------------------
B|--11b13v--------------8v---8r6p4--------4--------------------
G|------------------------------------------3p1----------------
D|----------------------------------------------3p1------------
A|--------------------------------------------------3--1-------
E|-------------------------------------------------------4-1v--


|----------15r13p11------------8-------8-11-10h11p10p8-10----------10-13-11h13p11p10---
|--16b18v-----------11-----------9---9--------------------11----11---------------------
|----------------------13-12-------8-------------------------10------------------------
|--------------------------------------------------------------------------------------
|--------------------------------------------------------------------------------------
|--------------------------------------------------------------------------------------


|-11----------11-(13)b15-13b15r13p11-13x----------13x-18x-22x-24b25v----
|----13----13---------------------------------15x-----------------------
|-------13--------------------------------15x---------------------------
|-----------------------------------------------------------------------
|-----------------------------------------------------------------------
|-----------------------------------------------------------------------


|-24v-p(22)--22r20-20-17--------------------------------------
|------------------------20x-18x-20b22v-----------------------
|-------------------------------------------------------------
|-------------------------------------------------------------
|-------------------------------------------------------------
|-------------------------------------------------------------



Cheers!

pages 1