HOME FORUM

Login






Register
Search
List of users


PLEASE NOTE THAT THIS FORUM IS TAKEN FROM PREVIOUS VERSION OF QUEEN SONGS SITE.
Path: Queen Songs - Forum - Tabs & Chords: Bring Back That Leroy Brown Live TabBookmark and Share

Forum

--- Only registered users can post a message ---pages 1
HenrikBjörklund: Bring Back That Leroy Brown Live Tab13 Aug 2004 14:39

 Bring Back That Leroy Brown LIve Version / Electric Guitar

|---------------------------------------------------------------------------------|
|----------------------------13-13------------13-13-13p12-------------------------|
|---------------12-12-12-12----------13-14----------------14--12-12---------------|
|--10-10-10-10------------------------------------------------------15p14-12------|
|---------------------------------------------------------------------------------|
|---------------------------------------------------------------------------------|

|-------------------------------------------------------------------|
|-------------------------------------------------------------------|
|--14-14-14-14-13-13-13-14---11-------------------------------------|
|---------------------------------10-10-9-9-8-8-7--10---------10----|
|-----------------------------------------------------7-8-10----10--|
|-------------------------------------------------------------------|

|----------------------------------------15-17p15----15--15-17p15----------------|
|--------8---------------------------/17----------18--------------17\15-13-15/17-|
|--7-8-9---11p10p8-10-8----------------------------------------------------------|
|-----------------------10-10v---------------------------------------------------|
|--------------------------------------------------------------------------------|
|-------------------------------8___---------------------------------------------|
                                                        
|--15-17p15-----------------------------------------------------------------|
|-----------17\15-13-------13-------------15-15b17___rp13v------------------|
|-------------------14p12-------14-14vv----------------------Bass run-------|
|---------------------------------------------------------------------------|
|---------------------------------------------------------------------------|
|---------------------------------------------------------------------------|

|-----------------------------------------------------------------------------|
|--19vv----------------------------------------------------------13-13--------|
|----------------------------------------------------12-12-12-12--------13-14-|
|--------10-----10-----10--------10-------10-10-10-10--------------------------|
|-----------10-----10-----7-8-10----10-----------------------------------------|
|-----------------------------------------------------------------------------|

|----------------------------------------------------------------|
|--13-13-13p12---------------------------------------------------|
|--------------14--12-12----------------Ukulele solo-------------|
|------------------------15p14-12--------------------------------|
|----------------------------------------------------------------|
|----------------------------------------------------------------|


|--------------------------------------------------------------------|
|--------------------------------------------------------------------|
|--------------------------------------------------------------------|
|--10-9-8-7--10-9-8-7--6-7--6-7---10-10-9-9-7-7-------------9h10-----|
|-----------------------------------------------9-----10----------8--|
|--------------------------------------------------------------------|

pages 1