HOME FORUM

Login






Register
Search
List of users


PLEASE NOTE THAT THIS FORUM IS TAKEN FROM PREVIOUS VERSION OF QUEEN SONGS SITE.
Path: Queen Songs - Forum - Tabs & Chords: Let Your Heart Rule Your Head (solo)Bookmark and Share

Forum

--- Only registered users can post a message ---pages 1
BadHorsie: Let Your Heart Rule Your Head (solo)06 Aug 2007 08:23

Hello, my name is Matías and I've transcribed this solo yesterday. I think everything's right but I'm not sure about the fingerings.


e|----------------------------------------*
B|----------------------------------------*
G|----------------------------------------*
D|----------------------------------------*
A|--------------------------2h4p2---------*
E|--0---0-0-0---0-0-0-0-2-5-------5p2-----*

e|------------------------------------------------------*
B|------------------------------------------------------*
G|----------------2-0----------------------2-4p2-4b6v---*
D|---------2-4p2-------4p2---------------4--------------*
A|--0-0--4-----------------3b-0-(3h)5-5-----------------*
E|------------------------------------------------------*

e|------2-------------------------------------0---------*
B|--------5p2---------------------------0-2p0-----------*
G|--4b6-------4p2---2h4---2-----------1-----------------*
D|----------------4-----4----4-3-2v---------------------*
A|------------------------------------------------------*
E|------------------------------------------------------*

e|-------2-----2------5-5-5--4/5-5-----5-7---5-7-7-------*
B|---------5b7----4/5-5-5-5----------7-----7-------------*
G|--4b6v-------------------------------------------9b11--*
D|-------------------------------------------------------*
A|-------------------------------------------------------*
E|-------------------------------------------------------*

e|--7b9-r7p5h7---5----------------------------------------*
B|-------------7------------------------------------------*
G|------------------(2h)4p2-4p2------------------------2--*
D|-------------------------------4p2-------------2h4p2----*
A|-----------------------------------3b-0--0h2h4----------*
E|--------------------------------------------------------*

 

Cheers, people!



Post was edited on 19 Dec 2008 01:45
pages 1