HOME FORUM

Login






Register
Search
List of users


PLEASE NOTE THAT THIS FORUM IS TAKEN FROM PREVIOUS VERSION OF QUEEN SONGS SITE.
Path: Queen Songs - Forum - Tabs & Chords: The Millionaire Waltz Guitar TabBookmark and Share

Forum

--- Only registered users can post a message ---pages 1
HenrikBjörklund: The Millionaire Waltz Guitar Tab17 Jul 2004 15:58

  The Millionaire Waltz

 This tab contains some licks, Rhytm parts and the Main Solo
 In the song the licks are played by several guitars played together, but this is an arrangment for one guitar
 
  0:45
|------------------------------------------7------5---8~---------|
|--------------3------3-6-------8-------10------8---8------------|
|----------3-5----3-5--------7-9----9-10-------------------------|
|-7-7-7--7-----------------7-------------------------------------|
|----------------------------------------------------------------|
|----------------------------------------------------------------|
  1:48
|----------------------------------------------------------------|
|-----------------------5-6---8-10-------8-10-11----13-15--------|
|-13/12/10/5--7-9-5---7------------10---------------------15-----|
|----------------------------------------------------------------|
|----------------------------------------------------------------|
|----------------------------------------------------------------|
 
  2:07
|---------------------------------------------------------------------------------11~-|
|-11--------------------------------------13---13-11-10-11-------------------13-------|
|----------------------10-13--------10-13------------------12----------12-------------|
|----13-10----------12-----------12---------------------------13-12-13----------------|
|----------13-12-13-----------13------------------------------------------------------|
|-------------------------------------------------------------------------------------|
                      2:21
|----------------------------------------------------------------|
|--11\8\4\1/3/8/4~-----------------------------------------------|
|----------------------------------------------------------------|
|-------------------------0-0-2-2-3---3-2---3-2-1---1------------|
|---------------------3-3-----------------------------4-3--------|
|---------------------------------------------------------4------|

|--------------------------------------------------------------------|
|--------------------------------------------------------------------|
|--------------------------------------------------------------------|
|-6---6-5-3--8------------------------------------------8_-----------|
|-4---4-3-1--6-------4-6------3-4-6------4-6-------3-4--6_--6-4------|
|----------------4-6------4-6--------4-6-------4-6--------------6-4--|

  Solo
|-------------------------------------------------------------------|
|-4-3h4-3h4-3h4-3h4/13-13-13---11h13p11--9h11p9--8h9p8--6h8p6-------|
|--------------------------------------------------------------5-6~-|
|-------------------------------------------------------------------|
|-------------------------------------------------------------------|
|-------------------------------------------------------------------|

|----------------------------------------------------------------|
|-2-1h2-1h2-1h2-1h2/11-11-11---11-9-8-6--------------------------|
|---------------------------------------5-6----------------------|
|----------------------------------------------------------------|
|----------------------------------------------------------------|
|----------------------------------------------------------------|

|-------------------------------------------------b13-13------------|
|-4-3h4-3h4-3h4-3h4/13-13-13---14p13----13h16p13----------13-16-14~-|
|------------------------------------16-----------------------------|
|-------------------------------------------------------------------|
|-------------------------------------------------------------------|
|-------------------------------------------------------------------|

|-----------------------------13--11-9-8----------------------------------|
|---------8-6h8-9-8h9-11-9--------------11-9-8----------------------------|
|-10-9h10--------------------------------------10-8-----------------------|
|---------------------------------------------------12-10-----------------|
|---------------------------------------------------------13-11-13-10-----|
|---------------------------------------------------------------------13--|

|-13--11-9-8------------------------|
|------------11-9-8-----------------|
|-------------------10--------------|
|----------------------13-10--------|
|----------------------------13~----|
|-----------------------------------|
  3:42
|---------------------------------------------------0-2-3-8~---------|
|--11--11\9\7---3-6-4-4~----------------------0-1-3------------------|
|---------------------------------------2-0-2------------------------|
|-----------------------------2---5-4-5------------------------------|
|--------------------------------------------------------------------|
|--------------------------------------------------------------------|

  
|------------------------------------------------------17-15------------15-------------------------|
|--------------------------8-10-10~---10-11-13-15--14--------18-17-18-------13-------10-11-13-15~--|
|------------------------------------------------------------------------------10-12---------------|
|--------------------------------------------------------------------------------------------------|
|-7-7-7---7-8-10--7-8-10---------------------------------------------------------------------------|
|--------------------------------------------------------------------------------------------------|

   4:37
|--------------------------------------------------------------------|
|-1-1-1-1------------------------------------------------------------|
|---------3-2-3-2-0-2-0---0------------------------------------------|
|-----------------------3---2------------------------------------5_--|
|-----------------------------3-----3-3-3--3-1-0-1-0---0---------3_--|
|----------------------------------------------------3---3-1-3-0-----|

 15:45 2004-07-17  Tabbed by Henrik Björklund

pages 1