HOME FORUM

Login






Register
Search
List of users


PLEASE NOTE THAT THIS FORUM IS TAKEN FROM PREVIOUS VERSION OF QUEEN SONGS SITE.
Path: Queen Songs - Forum - Tabs & Chords: TAB: My Life Has Been SavedBookmark and Share

Forum

--- Only registered users can post a message ---pages 1
PD: TAB: My Life Has Been Saved16 Jun 2004 06:28

MY LIFE HAS BEEN SAVED  (1989-single version)

words and music by Queen (Brian)
transcribed by Maxi Dries
(maximad91@yahoo.com">maximad91@yahoo.com
Olavarría, Buenos Aires, Argentina

Intro:


E--------------------------------------------------------------------------------
B------------------------8-----8-----8----8-10-11----11--11----10--8--10---------
G---0____/5----5--5--/9-----9---------------------------------------------10-----
D-----------------------------------------------------------------------------10-
A--------------------------------------------------------------------------------
E--------------------------------------------------------------------------------

E------------------------------------------------------------
B------------------------------------------------------------
G---12b14-----12-----10v-----7h9h10--9--7--------------------
D------------------------------------------10--10-p9---------
A-----------------------------------------------------10_____
E------------------------------------------------------------


E------------------------------------------------------------
B---------------------------------________-------------------
G---------7h9h10----12b14----b14--12b14r12p10--10p9----------
D-------9-------------------------------------------10____---
A-(10__)-----------------------------------------------------
E------------------------------------------------------------


E----------------------------------------------------------------------
B---16b18--b18--16b18--b18--16b18----r16vvv-----b16_r14--14---16__b18\\
G----------------------------------------------------------------------
D----------------------------------------------------------------------
A----------------------------------------------------------------------
E----------------------------------------------------------------------

pages 1