HOME FORUM

Login






Register
Search
List of users


PLEASE NOTE THAT THIS FORUM IS TAKEN FROM PREVIOUS VERSION OF QUEEN SONGS SITE.
Path: Queen Songs - Forum - Tabs & Chords: My Fairy King (intro)Bookmark and Share

Forum

--- Only registered users can post a message ---pages 1
Ricky: My Fairy King (intro)13 Feb 2006 03:29

I found an arrangement of the intro for one guitar:

|---------|------4----|----1-(1)--0-1-|-(1)-3--------3-4-|
|---------|----blip---|---------------|-------(8)----5-6-|
|---------|-----------|---------------|--------0---------|
|---------|-----------|---------------|--------------5-6-|
|---------|-----------|---------------|------------------|
|---------|-----------|---------------|------------------|


|-4------4-6-|-6------6-8-|--8-------8--9-|--9-------9-11-|
|-6------6-8-|-8------8-9-|--9-------9-11-|-11------11-13-|
|------------|-5------5-8-|-10------10-12-|-12------12-13-|
|-6------5-6-|------------|---------------|---------------|
|------------|------------|---------------|---------------|
|------------|------------|---------------|---------------|


                               
|-13------13-13-|-13------13--|
|-13------13-14-|-14------14--|
|-13------13-15-|-15------15--|
|---------------|-------------|
|---------------|-------------|
|---------------|-------------|

pages 1