HOME FORUM

Login






Register
Search
List of users


PLEASE NOTE THAT THIS FORUM IS TAKEN FROM PREVIOUS VERSION OF QUEEN SONGS SITE.
Path: Queen Songs - Forum - Tabs & Chords: live -in the lap of the gods...revisitedBookmark and Share

Forum

--- Only registered users can post a message ---pages 1
woody: live -in the lap of the gods...revisited16 Apr 2004 21:28

Live at wembley version.

I'm only thirteen, so it might be wrong;

Intro:
|-2-2------5-5--|
|-3-3------8-8--|      0 /
|-2-2------7----|       /
|-0-0-----------|      / 0
|---------------|
|---------------|

It's so easy  but I can't do it
|------------14---------2------2~----|
|------------15---------3-------3~---|
|------------14---------2--------2~--|  
|-----------------------0--------(0)-|
|------------------------------------|
|------------------------------------|

So risky… but I gotta chance it
|-------5---------------5----5------0-|
|-------8---------------8----8--7---0-|
|-------7---------------7----7---7--0-|
|-----------------------------------2-|
|-----------------------------------2-|
|-----------------------------------0-|

So Funny;  but there's nothing to laugh about...


My money;(im not so sure so try to work the rest out yourself...


I can see what you want me to be(again not so sure)
|--------2-x-x------2-x------2-x--...?
|--3---3--------------------------...?
|----2-----------2--------2-------...?
|---------------------------------...?
|---------------------------------...?
|---------------------------------...?

But I'm no fool;     (riff A)
|-----------0-0--0-0--0-0----2------------------------------------------------|
|-----------2-2--2-2--2-2----3------------------------------------------------|
|-----------2-2--2-2--2-2----2------------------------------------------------|
|-----------2-2--2-2--2-2----0----0--------------------2--(7)-----------------|
|-----------0-0--0-0--0-0-------3---2---7--5---7----4--0---5--4--5-7--6--7--10|
|-----------------------------------------------------------------------------|

repeat this several times.

Chorus “solo”
|-----0-----------------------------------------------------------------------|
|--3----2---7b9---9r7-6-5--7b8-4--5b7--4v--5v-7vv---6b--7-10b12--10\5-5\2---1-|
|-----------------------------------------------------------------------------|
|-----------------------------------------------------------------------------|
|-----------------------------------------------------------------------------|
|-----------------------------------------------------------------------------|


then riff A again

All of this is almost totally wrong... but it gives you the right idea, I will re-transcribe
soon...

Woody

1.PD 18 Apr 2004 20:35

"So funny, but there's nothing to laugh about
My money is all you wanna talk about."

This passage goes like this:
  *     *     *     *     *     *     *     *
|-------------------------------------------------|
|-------0-----------0---------0-----0-------0-----|
|---------0-----------0-----0-----0-------0---0---|
|-2---------2-1---------1-2-----0-------2-------2-|
|-------------------------------------4-----------|
|-------------------------------------------------|

2.woody 19 Apr 2004 21:16
thank you
3.Mikki 08 Jun 2004 20:38
thanks for workin this out. i keep meanin to but i wouldnt know where to start and if i can help with any bits of it, i'll post it on here for you.
4.woody 08 Jun 2004 21:37
cheers, its one of my (many) favourite songs, and I hope you enjoy it!!
pages 1