HOME FORUM

Login






Register
Search
List of users


PLEASE NOTE THAT THIS FORUM IS TAKEN FROM PREVIOUS VERSION OF QUEEN SONGS SITE.
Path: Queen Songs - Forum - Tabs & Chords: White Queen - fingerstyleBookmark and Share

Forum

--- Only registered users can post a message ---pages 1
PD: White Queen - fingerstyle29 Feb 2004 18:58

It's been on my harddisk for more than a year. It's unfinished, but nice, so I put it here until one day it gets completed.
Queen: White Queen

Arranged for classical guitar


Intro
  *   .   .   .   *
|-------------0-->0h2-----------|
|---------3------<3-------------|
|-------0-------->2-------------|
|-----0----------<0-------------|
|-0h2---------------------------|
|-------------------------------|

Chorus:
  *   .   .   .   *   .   .   .   *   .   .   .
|-------------------------------------------------|
|-0---------------3---0-----------0---3-----------|
|-0---2-----------2---0-----------0---2-----------|
|-----0-----------4---2-----------0---0-----------|
|-------------------------------------0-----------|
|-3-------------------------------3---------------|

  *   .   .   .     *   .   .   .   *   .   .   .   *   .   .   .
|-----0------------(3)--2-----------0---0-----------------------2---|
|-3---0-------------0---3-----------0---0-----------0-----------3---|
|-2---0-------_____-0---2-----------2---0-----------0---2-----------|
|-4---2-------4p2p0-0---0-----------2---2---------------0-----------|
|-----------2------22---0-------------------------------------------|
|-------------------3\------------------------------3---------------|

pre-Verse
  *                               *
|-0---------------------------------------------------------------|
|---------1-------0-----------------------1-------0---------------|
|-------------------------2-------------------------------2-------|
|-----2-------2-------2-------2-------2-------2-------2-------2---|
|-0---------------------------------------------------------------|
|---------------------------------3-------------------------------|

  *               !               *
|-----------------------------------------------------------------|
|-------------------------------------1--p0-------------------0---|
|---------2-------2-------2-------------------------------2-------|
|-----2-------0---------------1---------------2-------2-----------|
|---------------------3-------------------------------------------|
|-1-------------------------------1---------------0---------------|



Verse:
  *                               *
|-------------------------0-------------------------------0-------|
|-0--h1---1-------0h1-----------0-0--h1---1-------0h1-----------0-|
|-------------2-------2-------2---------------2-------2-------2---|
|---------------2-----------2-------------------2-----------2-----|
|-0---------------------0-----------------------------------------|
|---------------------------------3---------------------3---------|


|-----------------------------------------------------------------|
|-0--h1---1---------------------------1--p0-------------------0---|
|(2)--------------2-------2-------------------------------2-------|
|-------------0---------------1---------------2-------2-----------|
|---------------------3-------------------------------------------|
|-1-------------------------------1---------------0---------------|


VERSE


Pre-Chorus:
  *               *               *               *               *
|---------------------------------0-------3---------------0---------------5-------|
|-1-------1---1---3-------1---3---1-------3-------1-----------1-------------------|
|-2-------2---2---0---------------0-------0-------2-------------------5-------5---|
|-----2---------------0-------------------------------2---------------------------|
|-0-------------------------------3-------2-------0---------------0---------------|
|-----------------3---------------------------------------------------------------|

  *               *               *               *
|-2-------2---3---0-----0---------2-------2-----3-5-----------5---|
|-3-------3-------1---3-----------3-------3-------5-------5-------|
|-2---2-----------2-----------2---2---2-------2---6---6-----------|
|-0-----------------------2-------0-------------------------------|
|-----------------0-------------------------------0---------------|
|-----------------------------------------------------------------|


Chorus'

|-3---2.--------------------------------------------------------|
|-3-----------------------------------------------------------|
|-0-----------------------------------------------------------|
|------------------------------------------------------------|
|------------------------------------------------------------|
|-3-----------------------------------------------------------|



pre-Verse
  *                               *
|-0---------------------------------------------------------------|
|---------1-------0-----------------------1-------0---------------|
|-------------------------2-------------------------------2-------|
|-----2-------2-------2-------2-------2-------2-------2-------2---|
|-0---------------------------------------------------------------|
|---------------------------------3-------------------------------|

  *                               *
|-----------------------------------------------------------------|
|-----------------0-------------------1--p0-------------------0---|
|---------2---------------2-------------------------------2-------|
|-----2-------0---------------1---------------2-------2-----------|
|---------------------3-------------------------------------------|
|-1-------------------------------1---------------0---------------|


VERSE

Bridge:
pre-Verse
  *                               *
|---------------------------------1-------1-------1---------------|
|-2-------2-------3-------5-------3-------3-------4---------------|
|-2-------2-------2-------0-------2-------2-------2-----------2---|
|-2-------2-------3-------5-------0---0-------0---1-------1-------|
|-0---0-------0-------0-------0-------------------3---3-----------|
|-------------------------------------------------1---------------|

  *                               *
|-------------------------1-------0-------0-------0---------------|
|-3-------1---------------3-------0-------0-------0---------------|
|-3-------2-------3-------2-------2-------2-------1---------------|
|-3-------3-------5-------0-------2-------------------------------|
|-1-------0-------5-----------------------------------------------|
|-----------------3---------------------------0---0---------------|


Solo:
  *       .       .       .       *       .       .       .
|-----------------------------------------------------------------|
|---------0h1---0-------1p0---------------1-----1p0---0-1-3p1-0h1-|
|-------------------2-------2-2-2-2-----------------2-------------|
|-----2-------2-----------------------2-------2-------------------|
|-0-------------------0-------------------------------------------|
|---------------------------------3-------------------------------|

  *       .       .       .       *       .       .       .
|-------------------0-0-0-0-------------------------------0-------|
|-0hp-0---------------------3---3-1hp---------0-1-0hp-----1p0-1-3-|
|-------2---------------------------------------------2-----------|
|---------2-----------------------1-------------------------------|
|-----------------------------------------------------------------|
|-1---------------1---------------1---------------0---------------|

  *       .       .       .       *       .       .______     .______
|-___---------------------3---3h5-3/5---5-5h7---7-7h8p7p5-7-8-7h8p7p5-7-5-|
|-5p3-----3---3h5---5/7-7-------------------------------------------------|
|----5------5---------------------0---------------------------------------|
|-------------------------------------------------------------------------|
|-0-----------------------------------------------------------------------|
|-------------------------------------------------------------------------|

  *       .       .       .       *       .       .       .
|-0-------------------------------------------------------------8-|
|---3---3---3-1-----------0-1-3/4-4p3-4p3-4p3p1-3-1---1-----------|
|---------------------2-----------------------------4-----4p2-4-0-|
|-----------------3-----------------------------------------------|
|-----------------------------------------------------------------|
|-1-------------------------------1-------------------------------|

  *________   .       .       .        *       .       .       .
|-7h8p7p5p0------------------------------------------------------------|
|-----------3-1p0-1-------0-1-3p1-1-/5---5-5-5-5p3-3-3-3---------------|
|-------------------0-2----------------------------------5-5-5-5p4-4-4-|
|----------------------------------------------------------------------|
|-0--------------------------------------------------------------------|
|--------------------------------------3-------------------------------|

  *       .
|-----------------------------------------------------------------|
|---------1-------------------------------------------------------|
|-4p2---2-----2-----4p2---------------------------------------------------|
|-----------------3------------------------------------------------|
|-----------------------------------------------------------------|
|-1----------------------------------------------------------------|



Instr. Chorus

  *       .       .       .       *       .       .             .
|-3-------2---5---5---5-3-2---------------------------------------------___3___-|
|-3-------3---7---7---7-3-3---3---------------------------------___3___-8-10-12-|
|-0-------2---7---7---7---2---2---2-------4--------------__3___-8-10-11---------|
|---------0-------------------4---4-------5-----5-__3___-7-9-11-----------------|
|---------------------------------2-------2-----6-7-9-10------------------------|
|-3-------------------------------0-------0-------0-----------------------------|


  *       .         .       .       *    
|-8-------8---------7-----------5--------------------------------|
|-8------10---12-10-8-------8-----8----------------------------------|
|-9------11---------7-------5-------------------------------------|
|-------------------5-----------------------------------------|
|------------------------------------------------------------|
|-8-----------------------------------------------------------|

pages 1