HOME FORUM

Login






Register
Search
List of users


PLEASE NOTE THAT THIS FORUM IS TAKEN FROM PREVIOUS VERSION OF QUEEN SONGS SITE.
Path: Queen Songs - Forum - Tabs & Chords: vocal harmony tabsBookmark and Share

Forum

--- Only registered users can post a message ---pages 1
PD: vocal harmony tabs13 Dec 2003 08:08

Some corrections
I would like to find a volunteer who would turn these tabs into
sheet music, something like the ones here:
aure.com

You're My Best Friend
Words and music by John Deacon

vocal harmonies

  Oh you make me live   Oh you make me live now honey, Oh you make me live
|-5---3---5----1--3---|-10--8--10----5--8---12--13-15--5---3---5----1---3-|
|-6---5---6----3--5---|-10--8--10----6--8---13--15-17--6---5---7----3---5-|
|-7---5---7----2--5---|-10--9--10----7--9---12--14-17--7---5---7----2---5-|
|-7---5---7----3--5---|-12-10--12----7--10--14--15-17--7---5---7----3---5-|
|---------------------|---------------------------------------------------|
|---------------------|---------------------------------------------------|

 Ooo   Oh you make me li - i - ive around Ooo still come back to you-
|-8--|-5---3---5----1-12--10---8---8--6----5-----8----6---11--11--10--|
|-9--|-6---5---6----3-13--12--10--10--8----6-----9----9---11--13--12--|
|-10-|-7---5---7----2-12--13--12--12--9----5----10---10---12--13--12--|
|-10-|-7---5---7----3-14--14--14--14-10---10----10---12---13--15--15--|
|----|----------------------------------------------------------------|
|----|----------------------------------------------------------------|

 -o - o - o - o  girl  Happy at home
|-10--7--10---8---10--|-3-3--3--10-8--|
|-12--9--12--10-8-10--|-3-5--6--10-8--|
|-13-11--13---9---11--|-4-5--7--10-9--|
|-14-12--14--14---16--|---------------|
|---------------------|---------------|
|---------------------|---------------|
...

..O - o - oh   ...  happy at home
|-12--13--15-------|-7--6-5---3-|
|-13--15--17-------|-8--7-6---5-|
|-12--14--17-------|-7--5-4---5-|
|------------------|----------5-|
|------------------|------------|
|------------------|------------|
...

  O you're my best friend
|-5--3------5--1-----8--|
|-6--5------6--3-----8--|
|-7--5------7--2-----9--|
|-7--5------7--3-----10-|
|-----------------------|
|-----------------------|

Tr:PD june '99, '03

1.PD 13 Dec 2003 10:21

'39
Words and music by Brian May
Vocal harmonies


Some unbelivably crazy harmony parts (I mean the ones jumping
through others) are the creation of Brian's mind, not a result of
inaccurate transcribing.

On the original record the guitars are tuned by a half step higher.
This tab was transcribed in using this tuning.


Intro (without soprano lead):
  *   .   .   .   *   .   .   .   * 
|--------------------------------------|
|-5---4-5-7----------------------------|
|-5---5-5-6----------------------------|
|-5---4-5-7------10-------2---10--2----|
|--------------------------------------|
|--------------------------------------|


1st chorus

 don't you hear my call... don't you hear me calling you
|-------------------------|-----------------------------|
|-8----12---12--12---12---|-8----12---12--10--13-12--10-|
|-9----12---12--12---12---|-9----12---12--12---9\-7---7-|
|-9----12---12--12--/12---|-9----12---12--12---5--5---4-|
|-------------------------|-----------------------------|
|-------------------------|-----------------------------|

 write your letters in the sand for the day I take your hand
|------------------------------------------------------------|
|------------------------------------------------------------|
|--9----11---12-12-11--11---9----7---7---5--5--4---5\4---2---|
|--9----12---12-12--9---7---5----9---9---5--5--5---7\5---2\0-|
|------------------------------------------------------------|
|------------------------------------------------------------|

 in the land that our grandchildren knew
|------------------------------------------|
|------------------------------------------|
|-0--2---4----4----5----7----9--11--/12----|
|-0--0---5----5----7----7v---9--10--7/9----|
|-5--5---5----5----5----9---17--17---17----|
|------------------------------------------|



2nd chorus

 don't you hear my call though you're many years away don't you hear me calling you
|----------------------------------------------------------------------------------|
|-8----12---12--12---12---12----8-----10-8---8---8-8---8-----12--12--10--13-12--10-|
|-9----12---12--12---12----7----7------9-7---7---7-7---9-----12--12--12---9\-7---7-|
|-9----12---12--12--/12----9----9-----10-9---10-10-9---9-----12--12--12---5--5---4-|
|----------------------------------------------------------------------------------|
|----------------------------------------------------------------------------------|

 write your letters in the sand for the day I take your hand
|------------------------------------------------------------|
|------------------------------------------------------------|
|--9----11---12-12-11--11---9----7---7---5--5--4---5\4---2---|
|--9----12---12-12--9---7---5----9---9---5--5--5---7\5---2\0-|
|-10----14---14-14-18--18--14---21---21--19-19-17-19\17--15--|
|------------------------------------------------------------|

 in the land that our grandchildren knew
|------------------------------------------|
|------------------------------------------|
|-0--2---4----4----5----7----9--11--/12----|
|-0--0---5----5----7----7v---9--10--7/9----|
|-5--5---5----5----5----9---17--17---17----|
|------------------------------------------|



3rd chorus
...

 All your letters in the sand cannot heal me like your hand
|---------------------------------------------------------|
|7/8--12---12-12--10--12--12---7--7---5----5--3----5-3--1-|
|-9---12---12-12--11--11---9---7--7---5----5--4----5-4--2-|
|-9---12---12-12--9---7----5---7--9---5----5--5----7-5--2-|
|---------------------------------------------------------|
|---------------------------------------------------------|

 
 For my life still ahead pity me 
|-----------------------------------|
|-5--3---0-----1---0--G2--0-1--0----|
|-4--2\0-0-----2---0--D4--4-2--0----|
|-5--4\2-2-----2---0---0--0-0--0----|
|-----------------------------------|
|-----------------------------------|
(G2 and D4: G string 2nd fret, D string 4th fret respectively)


Tr: PD, '99, '03

2.PD 13 Dec 2003 12:09

Play The Game
Words and music by Freddie Mercury

vocal harmonies

Some harmony blocks were too tight to write into a
normal TAB, resulting some tabs with multiple G strings
(and no A and E strings)

 


PD '96, '01, '03,

 

  easy ... easy ... play the game ... play the game
                                 e|--------3---5-------|
B--------|-5--5--|--------5---6---|--------5---6-------|
B-9--5---|-9--5--|---12--12--12---|-----9--8---7-------|
G-5--2---|-5--3--|----5---5---4---|-----0--0---0-------|
D-5--14--|-5--17-|---14--14---12--|----10--10--8-------|
|lead:
|--------|-------|----------------|...0----3---8...----|
|--------|-------|----------------|--------------------|
|--------|-------|----------------|--------------------|
|-5--14--|-5--17-|----------------|--------------------|
|--------|-------|----------------|--------------------|
|--------|-------|----------------|--------------------|


 let yourself go
|-1----8--8----8-|
|-3----6--6----6-|
|-4---/7--7----7-|
|-6---18-18---18-|
|----------------|
|----------------|

 

 your life   it's a free world  play the game...play the game
                                             e|--------3---5--|
B-----5/8--|-6----6---5---1---|--------5--6---|--------5---6--|
G-9----5---|-7----7---5---3---|--12---12--12--|---9----8---7--|
G-5----2---|-0----5---5---9---|--5-----5--4---|---0----0---0--|
D-5---14---|-9----7---5---17--|--14---14--12--|--10---10---8--|
|
|lead:
|----------|------------------|---------------|...0----3----8--|
|----------|------------------|---------------|----------------|
|----------|------------------|---------------|----------------|
|-5----14--|-9---7----5---17...---------------|----------------|
|----------|------------------|---------------|----------------|
|----------|------------------|---------------|----------------|


 love runs from my head down to my toes  play the game
|---------------------------------------|--------------|
|-6----6-----6---8--10---8----6--5--3---|--8---7---5---|
|-5----5-----5---7/-10---9----7--5--4---|--9---7---5---|
|-7----7-----7---7/-12--10----9--7--5---|--9---7---5---|
|-8----8-----8---13---------------------|--------------|
|---------------------------------------|--------------|


 come come come come play the game play the game play the game play the game
|---------------------10---10--10----5----5---5----3---3---3-----1---1---1--|
|-0----5----8----10---12---12--12----8----8---8----5---5---5-----3---3---3--|
|-0----4----9----11---12---12--12----9----9---9----5---5---5-----3---3---3--|
|-2----5---10----12---14---14--14---10---10--10----8---8---8-----5---5---5--|
|---------------------------------------------------------------------------|
|---------------------------------------------------------------------------|
|lead:
G---------------------16---14--12---12---11---9----9---7---5-----7---3---0--|

...

3.PD 13 Dec 2003 17:26

Queen: The Prophet's Song
vocal harmonies:

  Beware the storm that gathers here, listen to the wise man
|------------------------------------------------------------|
|--1--6---6----5-----5---3--3---G3-----1--3---3---1--3----10-|
|--5--5---5----5-----5---3--3---D4-----0--2---2---0--2-----9-|
|--5--7---7---8\5----5---3--5----0------------------------12-|
|--------------------------------------3--5---5---3--5-------|
|------------------------------------------------------------|

  Oh oh people of the earth 'Listen to the warning' the prophet he said
|-----------------------------------------------------------------------|
|-10-8---5---6-6---5--6-------5--6---6--5---6--6-----5---6--6----5---5--|
|-10-9---5---7-7---5--7-------5--7---7--5---7--7-----5---7--7----5---5--|
|-12-10--5---7-7---5--7-------5--7---7--5---7--7-----5---7--7----5---5--|
|-----------------------------------------------------------------------|
|-----------------------------------------------------------------------|

 Summoned by your own hand
|--------------------------|
|-5--6-----6--5----6---13--|
|-5--7-----7--5----7---14--|
|-5--7-----7--5----7---17--|
|--------------------------|
|--------------------------|

  Ah-ah-ah-ah   and two by two
|-5--3--6--5-----5---5---5--5---|
|-6--5--6--6-----6---6---6--6---|
|-7--5--5--5-----5---5---5--5---|
|-7--5--8--7-----8---8---8--8---|
|-------------------------------|
|-------------------------------|

 running for to come running for to come out of the rain
|-----------------------------------------------------17---|
|----------------------------------------------------------|
|-7--5----7---5--7----7--5----7---5--7----7---5--7----14---|
|-7--5----7---5--7----7--7----8---7--8----8---7--8----15---|
|-8--7----8---7--8---10--8---10--10--5----10--8--10---17---|
|----------------------------------------------------------|


second half of the canon
 laa laa, la la la la laa laa,  la la la la laa laa
|-1---1---10--8--6--5--1---1----10--8--6--5--1---1---|
|-3---3---11-10--8--6--3---3----11--10-8--6--3---3---|
|-3---3---10-10--7--7--3---3----10--10-7--7--2---2---|
|----------------------------------------------------|
|----------------------------------------------------|
|----------------------------------------------------|

  la la la la laa laa,  la la la la laa laa,  la la la la laa laa
|-10--8--6--5--1---1----10--8--6--5--3---3----10--8--6--5--1---1-|
|-11-10--8--6--3---3----11-10--8--6--3---3----11-10--8--6--3---3-|
|-10-10--7--7--3---3----10-10--7--7--3---3----10-10--7--7--3---3-|
|----------------------------------------------------------------|
|----------------------------------------------------------------|
|----------------------------------------------------------------|

  la la la la laa laa,  la la laa laa,  la la laa laa
|---------------------------------------------------------|
|-11-10--8--6--4---4----13--8--4---4----13--8--3----3-----|
|-12-10--7--5--3---3----15-12--3---3----15-12--3----3-----|
|-12-12--8--7--5---5----15-12--5---5----15-12--5----5-----|
|---------------------------------------------------------|
|---------------------------------------------------------|

  la la come here, I you come here, I you come here, I you
|-10-10---6---5---10--10--6----5---10--10--6----5----10-10--|
|-13-11---8---7---13--11--6----6---13--11--5----5----13-11--|
|-12-10---7---7---12--10--7----5---10--10--3----3----9--9---|
|-----------------------------------------------------------|
|-----------------------------------------------------------|
|-----------------------------------------------------------|

  Ah  a-ah ah a-ah  ... man
|-3---3-6--6--6-11-------10---|
|-4---4-8--8--8-11-------10---|
|-3---3-8--8--8-12-------12---|
|-----------------------------|
|-----------------------------|
|-----------------------------|

...
  Oh oh children of the land love is still the answer take my hand
|-10-8---3---5---5---3---5----3---5---5-----3---5--5---5---5/8--8-|
|-10-8---5---6---6---5---6----5---6---6-----5---6--6---6---6/8--8-|
|-10-9---5---7---7---5---7----5---7---7-----5---7--7---7---7/9--9-|
|-----------------------------------------------------------------|
|-----------------------------------------------------------------|
|-----------------------------------------------------------------|

  wo - o - o  wo - o - o  ... man ... laugh of the mad man
|--8--10--12--10--12--13-------10----------------------10---|
|-10--11--13--11--13--15-------10----------------------10---|
|-10____--12--10--12--14-------10----------------------11---|
|------------------------------------------------------12---|
|-----------------------------------------------------------|
|-----------------------------------------------------------|


Tr: PD. '03

pages 1