HOME FORUM

Login






Register
Search
List of users


PLEASE NOTE THAT THIS FORUM IS TAKEN FROM PREVIOUS VERSION OF QUEEN SONGS SITE.
Path: Queen Songs - Forum - Tabs & Chords: Hangman TabBookmark and Share

Forum

--- Only registered users can post a message ---pages 1
DerangedDutchie: Hangman Tab07 Dec 2003 23:21
Im new here. I love this site, I love trying to understand the Song Analysis, I love playing the fingerstyle Arrangements. I love all of this. The only thing I would really like to see added to this page is the Guitar Tab for the Wonderfull song : Hangman. So even though this is my first post I would like to ask you all a favour and submit the tab if you have it or know how to play it.
I will start guitar lessons in the New Year, if nobody knows how to play Hangman I will ask my teacher to look into it and I will post it here if anybody is intrested...
Thank You for reading this.
Cheers, Dennis
1.PD 13 Dec 2003 08:17
Hi Dennis,
I too love playing the fingerstyle arrangement. Song analysis will be easy to understand, because I do it on a basic level.
As for Hangman: that's not a very complicated song as I remember. Does anybody in the house want to transcribe it?
2.Daniel 13 Dec 2003 17:43

Well this is the main riff

------------------------|-------------------------|
-----------3--3--1------|------------3--3--1------|
--2----2---2--2--0------|--2--2--2---2--2--0------|
--2----2---0--0---------|--2--2--2---0--0---------|
--0----0---0--0--3------|--0--0--0---0--0--3------|
------------------------|-------------------------|

The chorus is in playing with A and finish with

|--------------------|
|--------------------|
|--2--0--------------|
|--------2--1--0-----|
|-----------------3--|
|--------------------|
 
The solo is
-------------------------|--------------------------0-2-3-4-|
------------3--3--1------|--------------------0-1-3---------|
--2--2--2---2--2--0------|--------------0-1-2---------------|
--2--2--2---0--0---------|--------0-2-4---------------------|
--0--0--0---0--0--3------|--0-2-3---------------------------|
-------------------------|----------------------------------|


                                                   
--5-----------8-5-3-1---|----1---------------------|
------------------------|-------4--2-1-0-----------|
------------------------|----------------3---------|
------------------------|------------------3-3-----|
------------------------|--------------------------|
------------------------|--------------------------|


                                                                     
--------1---3-5----5-3-1--8-5-5-|----5-3-1-0-1--3-5-5-8-10----8-10---|
------1---1---------------------|--------------------------10--------|
----2---------------------------|------------------------------------|
--------------------------------|------------------------------------|
--------------------------------|------------------------------------|
--------------------------------|------------------------------------|


                                                                       
--10--------------------------------------|------10------8------6-8--6-|
-----------------10-10-10-10-10-10-8------|----------------------------|
------10----8-10---------------------10-8-|--10------------------------|
------------------------------------------|----------------------------|
------------------------------------------|----------------------------|
------------------------------------------|----------------------------|


                                                                           
--5-------------------------------|--1---1-3-5---5-6-8-6-5-6-8-13----------|
-----6--------------------------1-|----1-------6------------------13-11-10-|
--------5-3-5--3-2----3-2-3-2-3---|----------------------------------------|
----------------------------------|----------------------------------------|
----------------------------------|----------------------------------------|
----------------------------------|----------------------------------------|


                                           
------------------------------8-10-10--10--|
--11-10------------------------------------|
----------------8-10-10-8-10---------------|
--------10---10----------------------------|
-------------------------------------------|
-------------------------------------------|


                                                             
--11-10-11-10-11-10-11-10-11--8----8--|--11-----------------|
--------------------------------------|---------------------|
--------------------------------------|---------------------|
--------------------------------------|---------------------|
--------------------------------------|---------------------|
--------------------------------------|---------------------|


Thats all what i remember

Hope someone made a complete tab

 

pages 1