HOME FORUM

Login






Register
Search
List of users


PLEASE NOTE THAT THIS FORUM IS TAKEN FROM PREVIOUS VERSION OF QUEEN SONGS SITE.
Path: Queen Songs - Forum - Tabs & Chords: new bass tabsBookmark and Share

Forum

--- Only registered users can post a message ---pages 1
PD: new bass tabs13 Nov 2003 21:56

Many new basstabs have been written using the new DTS tracks for the entire "Opera" album plus Don't Try Suicide.
Soon (or later) to be updated in the tabs section.


Queen: Don't Try Suicide
Bass tab

Intro:

  1     2     3     4   1
  *     .     .     .     *
|-------------------------|
|-----x-9-----------x-----x
|-------------------------|
|-------------------------|

...

Verse
  *     .     .     .     *     .     .     .     *     .     .     .     *     .     .     .   
|-------------------------------------------------------------------------------------------------|
|-------------------------------------------------------------------------------------------------|
5-2-----x---x-3-----4---5-----------------------0-2-----2-----3-----4---5-------------------------|
|-------------------------------------------------------------------------------------------------|

 

 

 


  *     .     .     .     *     .     .     .     *     .     .     .     *     .     .     .   
|-------------------------------------------------------------------------------------------------|
|-------------------------------------------------------------------------------------------------|
|-2-----x---x-3-----4---5-------------------------2-----2-----3-----4---5-------------------------|
|-------------------------------------------------------------------------------------------------|


  *     .     .     .     *     .     .     .     *     .     .     .     *     .     .     .   
|-------------------------------------------------------------------------------------------------|
|-------------------------------------------------------------------------------------------------|
|-------------------------------------------------------------------------------------------------|
|-5-----3---5-------------------------------------5-----3---5-------------------------------------|

3/4                                 4/4
 *     .     .     *     .     .     *     .     .     .
|------------------------------------------------------------|
|------------------------------------------------------------|
|------------------------------------------------3---------3-5
|-5-----3---5------5-----3---5-------5-----3---5-------5-----|


Chorus
  *     .     .     .     *     .     .     .     *     .     .     .     *     .     .     .   
|-------------------------------------------------------------------------------------------------|
|-------------------------------------------------------------------------------------------------|
|-5-----5-----------------------------------------5-----5-----------------3-----------------------|
|-------------3---x-3-----3---------5-----5-------------------3---3-----------------5-------------|

  *     .     .     .     *     .     .     .     *     .     .     .         
|-------------------------------------------------------------------------|
|-------------------------------------------------------------------------|
|-5-----5-----------------------------------------5-----5-----------------|
|-------------3---3-------3---------5-----5-------------------3---3-------|


  *     .     .     .     *                       *
|-------------------------------------------------------------------------|
|-----------------------5---------------------------------/---------------|
|-------------------------------------------------------------------x-----|
|-6---------1-------------------------------------------------------------|

 

Verse
  *     .     .     .     *     .     .     .     *     .     .     .     *     .     .     .
|-------------------------------------------------------------------------------------------------|
|-------------------------------------------------------------------------------------------------|
|-2-----x---x-3-----4---5-------------------x---x-2-----2-----3-----4---5-------x---x-x---x-x---x-2
|-------------------------------------------------------------------------------------------------|

  *     .     .     .     *     .     .     .     *     .     .     .     *     .     .     .
|-------------------------------------------------------------------------------------------------|
|-------------------------------------------------------------------------------------------------|
x-2-----x---x-3-----4---5-----------------------x-2-----x---x-3-----4---5-------\--(1)---/(3)-----|
|-------------------------------------------------------------------------------------------------|

  *     .     .     .     *     .     .     .     *     .     .     .     *     .     .     .
|-------------------------------------------------------------------------------------------------|
|-------------------------------------------------------------------------------------------------|
|-------------------------------------------------------------------------------------------------|
|-5-----3---5-------------------------------------5-----3---5-------------------------------------|

3/4                                 4/4
  *     .     .     *     .     .     *     .     .     .
|------------------------------------------------------------|
|------------------------------------------------------------|
|------------------------------------------------3---------3-5
|-5-----3---5------5-----3---5-------5-----3---5-------5-----|


Chorus
  *     .     .     .     *     .     .     .     *     .     .     .     *     .     .     .  
 
|-------------------------------------------------------------------------------------------------|
|-------------------------------------------------------------------------------------------------|
|-5-----5-----------------------------------------5-----5-----------------3-----x-----------------|
|-------------3---3-x-----3---3-x---5-----5-5---0-------------3---3-x---------------5-------------|

  *     .     .     .     *     .     .     .     *     .     .     .         
|-------------------------------------------------------------------------|
|-------------------------------------------------------------------------|
|-5-----5-----------------------------------------5-----5-----------------|
|-------------3-----x-----3---------5-----5-x-----------------3---3-x-----|

  *     .     .     .     *     .     .     .     *     .     .     .
|-------------------------------------------------------------------------|
|-----------------------5-------------------------------------------------|
|-------------------------------------------------------------------x-----|
|-6---------1-------------------------------------------------------------|


Bridge:
  *     .     .     .     *     .     .     .     *     .     .     .     *     .     .     .    
|-------------------------------------------------------------------------------------------------|
|-------2-----3-----4---5-------2---2-3---3-4-4-4-5---5-3-----2-----------------------------2-5-2-|
|-3-----------------------3---3-------------------------------------5---5-------2---2-5---5-------|
|-------------------------------------------------------------------------3---3-------------------|

  *     .     .     .     *     .     .     .     *     .     .     .     *     .     .     .    *
|-------------------5-5-------------2-5-5---------------------------------------------------------|
|-------2---2-5---5-----5-------2-5-------5-2---4-7-----6---7-------6---7-------6---7-------6-----7
|-3---3-------------------3---3---------------3---------------------------------------------------|
|-------------------------------------------------------------------------------------------------|


...

Bridge-solo
 .     *     .     .     .     *     .     .     .     *     .     .     .     *     .     .    .    
|------------------------------------------------------------------------------------------------------|
|------------2-----3-----4---5-------2---2-3---3-4-4-4-5---5-3---3-2---2-------------2-5-2-------------|
10\----3-----------------------3---3-------------------------------------5---5---2-5-------5-2-5-2-5-2-|
|------------------------------------------------------------------------------3-----------------------|

  *     .     .     .     *     .     .     .     *     .     .     .     *     .     .     .   
|-------------------2-5-2--------------------------------------------------------------------------|
|-------2---2-5---5-------------2---2-3---3-4-5-6-7-----6---7-------6---7-------6---7-------9---10-|
|-3---3-------------------3---3--------------------------------------------------------------------|
|--------------------------------------------------------------------------------------------------|

   *     .      .     .      *     .     .     .
|----------------------------------------------------|
10-------9---10-------9---10-------------------------|
|----------------------------------------------------|
|----------------------------------------------------|

 

Verse
  *     .     .     .     *     .     .     .     *     .     .     .     *     .     .     .   
|-------------------------------------------------------------------------------------------------|
|-------------------------------------------------------------------------------------------------|
|-2-----x-----3-----4---5-----------------------x-2-----2-----3-----4---5-------------------------|
|-------------------------------------------------------------------------------------------------|


  *     .     .     .     *     .     .     .     *     .     .     .     *     .     .     .   
|-------------------------------------------------------------------------------------------------|
|-------------------------------------------------------------------------------------------------|
|-2-----x---x-3-----4---5-----------------------x-2-----2-----3-----4---5-------------------------|
|-------------------------------------------------------------------------------------------------|


  *     .     .     .     *     .     .     .     *     .     .     .     *     .     .     .   
|-------------------------------------------------------------------------------------------------|
|-------------------------------------------------------------------------------------------------|
|-------------------------------------------------------------------------------------------------|
|-5-----3---5-------------------------------------5-----3---5-------------------------------------|

 3/4                                 4/4
  *     .     .     *     .     .     *     .     .     .         
|-------------------------------------------------------------|
|-------------------------------------------------------------|
|-------------------------------------------------3---------3-5
|-5-----3---5-------5-----3---5-------5-----3---5-------5-----|


Chorus
  *     .     .     .     *     .     .     .     *     .     .     .     *     .     .     .  
|-------------------------------------------------------------------------------------------------|
|-------------------------------------------------------------------------------------------------|
|-5-----5-----------------------------------------5-----5-----------------3-----------------------|
|-------------3-----x-----3---3-x---5-------x---5-------------3-----x---------------5-------------|


  *     .     .     .     *     .     .     .     *     .     .     .         
|-------------------------------------------------------------------------|
|-------------------------------------------------------------------------|
|-5-----5-----------------------------------------5-----5-----------------|
|-------------3-----x-----3---------5-------------------------3---x-x-----|


  *     .     .     .     *     .     .     .     *     .     .     .     *  .  .  .  *  .  . .
|-------------------------------------------------------------------------------------------------|
|-------------------------------------------------------------------------------------------------|
|-1-----------------------1-----------------------1-----------------------5-----------------------|
|-----------1-----------------------1-------------------------------------------------------------|


Outro:
  *     .     .     .     *     .     .     .     *     .     .     .     *     .     .     .   
|-------------------------------------------------------------------------------------------------|
|-------------------------------------------------------------------------------------------------|
|-2-----x---x-3-----4---5-----------------------x-2-----2-----3-----4---5-------------------------|
|-------------------------------------------------------------------------------------------------|

  *     .     .     .     *     .     .     .     *     .     .     .     *     .     .     .   
|-------------------------------------------------------------------------------------------------|
|-------------------------------------------------------------------------------------------------|
|-2-----x---x-3-----4---5-------------------------2-----2-----3-----4---5-------------------x---x-|
|-------------------------------------------------------------------------------------------------|

  *     .     .     .     *     .     .     .     *     .     .     .     *     .     .     .   
|-------------------------------------------------------------------------------------------------|
|-------------------------------------------------------------------------------------------------|
|-2-----x-----3-----4---5-------------------------2-----2-----3-----4---5-------------------------|
|-------------------------------------------------------------------------------------------------|

...

Tr: PD. nov 2003

1.PD 16 Nov 2003 11:01

Queen: Seaside Rendezvous
bass tab


Intro
  .   .   *   .   .   .   *   .   .   .   *   .   .   .   *   .   .   .
|-------------------------------------------------------------------------|
|-------------------------------------------------------------------------|
|-------------------------------------------------------------------------|
|-------------------------3---3-------------------------------------------|


Verse
  *     .     .     .     *     .     .     .     *     .     .     .     *     .    .     .
|-------5-----------5-----------5-----------5-----------5-----------5-----------5----------5-----|
|------------------------------------------------------------------------------------------------|
|-3-----------3-----------3-----------3-----------3-----------3-----------3----------3-----------|
|------------------------------------------------------------------------------------------------|

  *     .     .     .     *     .     .     .    
|------------------------------------------------|
|-------5-----5---------5------------------------|
|------------------------------------------------|
|-3-----------------3-----------3-----5-----7----|

  *     .     .     .     *     .     .     .     *     .     .     .     *     .    .     .
|-------7-----------7-----------7-----------7----------------------------------------------------|
|-------------------------------------------------5-----7-----9---7-----5------------------------|
|-5-----------5-----------5-----------5----------------------------------------------------------|
|------------------------------------------------------------------------------------------------|

  *     .     .     .     *     .     .     .    
|-------5-----------5-----------------------------|
|-------------------------------------------------|
|-3-----------3-----------3-----------------------|
|-------------------------------------------------|

  *     .     .     .     *     .     .     .     *     .     .     .     *     .     .     .
|-------------------------------------------------10----9-----7-----5-----------------------------|
|-3---------5-----------------------------------------------------------------5-5---5------------|
|-------------------------3-----------------------------------------------------------------------|
|-----------------------------------5-------------------------------------------------------------|

  *     .     .     .     *     .     .     .     *     .     .     .     *     .     .     .
|-----------4-------------3---------2-------------------------------------------------------------|
|------------------(0)----------------------------------------------------------------------------|
|-3-----------------------------------------------7-----6-----5---------3-------------------------|
|-------------------------------------------------------------------3-----------------------------|


Bridge:
  *     .     .     .     *     .     .     .     *     .     .     .     *     .     .     .
|-------10----------10----------10----------10----------12----------12----------12----------12---|
|-------------------------------------------------------------------------------------------------|
|-8-----------8-----------8-----------8-----------10----------10----------10----------10----------|
|-------------------------------------------------------------------------------------------------|

  *     .     .     .     *     .     .     .     *     .     .     .     *     .     .     .
|-------5-----------5-----------5-----------5---------------------------7-------------------------|
|-------------------------------------------------------7-----7---7-------------------------------|
|-3-----------3-----------3-----------3-----------------------------------------------------------|
|-------------------------------------------------------------------------------------------------|

  *     .     .     .     *     .     .     .     *     .     .     .     *     .     .     .
|-------------------------------------------------------------------------------------------------|
|-8---------7-------------6---------5-------------5-----7-----9-----7---5-------------------------|
|-------------------------------------------------------------------------------------------------|
|-------------------------------------------------------------------------------------------------|


Verse (solo)
  *     .     .     .     *     .     .     .     *     .     .     .     *     .    .     .
|-------5-----------5-----------5-----------5-----------5-----------5-----------5----------5-----|
|------------------------------------------------------------------------------------------------|
|-3-----------3-----------3-----------3-----------3-----------3-----------3----------3-----------|
|------------------------------------------------------------------------------------------------|

  *     .     .     .     *     .     .     .    
|-------------------------------------------------|
|-------------------------------------------------|
|-------------------------------------------------|
|-------3-----------------------------------------|

  *     .     .     .     *     .     .     .     *     .     .     .     *     .    .     .
|-------7-----------7-----------7-----------7----------------------------------------------------|
|-------------------------------------------------5-----7----------------------------------------|
|-5-----------5-----------5-----------5----------------------------------------------------------|
|------------------------------------------------------------------------------------------------|

  *     .     .     .     *     .     .     .    
|-------5-----------5-----------------------------|
|-------------------------------14----15----17----|
|-3-----------3-----------3-----------------------|
|-------------------------------------------------|

  *     .      .     .      *      .     .     .     *     .     .     .     *     .     .     .
|-----------19-----------12--------------------------------------------------------------------------|
|-19------------------------10--9--8--7--------------------------------------------------------------|
|----------------------------------------------------8-----------------------------------------------|
|--------------------------------------------------------------------------------3-3---3-------------|

  *     .     .     .     *     .     .     .     *     .     .     .     *     .     .     .
|-----5-5---4-----4-4---3-----3-3---2-----2------------------------------------------------------|
|-------------------------------------------------------------------------------------------------|
|-3-----------------------------------------------7-----6---------------3-------------------------|
|-------------------------------------------------------------------3-----------------------------|


Bridge:
  *     .     .     .     *     .     .     .     *     .     .     .     *     .     .     .
|-------10----------10----------10----------10----------------------------------7-----8-----9-----|
|-------------------------------------------------------7-----8-----9--9--10-------------------10-|
|-8-----------8-----------8-----------8-----------10----------------------------------------------|
|-------------------------------------------------------------------------------------------------|

  *     .     .     .     *     .     .     .     *     .     .     .     *     .     .     .
|-------5-----------5-----------5-----------5---------------------------7-------------------------|
|-------------------------------------------------------7-----7---7-------------------------------|
|-3-----------3-----------3-----------3-----------------------------------------------------------|
|-------------------------------------------------------------------------------------------------|

  *     .     .     .     *     .     .     .     *     .     .     .     *     .     .     .
|-------------------------------------------------------------------------------------------------|
|-8---------7-------------6---------5-------------5-----7-----9-----7---5-------------------------|
|-------------------------------------------------------------------------------------------------|
|-------------------------------------------------------------------------------------------------|


Verse
  *     .     .     .     *     .     .     .     *     .     .     .     *     .    .     .
|-------5-----------5-----------5-----------5-----------5-----------5-----------5----------5-----|
|------------------------------------------------------------------------------------------------|
|-3-----------3-----------3-----------3-----------3-----------3-----------3----------3-----------|
|------------------------------------------------------------------------------------------------|

  *     .     .     .     *     .     .     .    
|-------------------------------------------------|
|-------5-----5---------5-------------------------|
|-----------------------------------------------x-|
|-3-----------------3-----------3-----5-----7-----|

  *     .     .     .     *     .     .     .     *     .     .      .      *     .    .     .
|-------7-----------7-----------7-----------7------------------------------------------------------|
|-------------------------------------------------5-----7-----9---10-----12------------------------|
|-5-----------5-----------5-----------5------------------------------------------------------------|
|--------------------------------------------------------------------------------------------------|

  *     .     .     .     *     .     .     .    
|-------5-----------5-----------------------------|
|-------------------------------14----15----17----|
|-3-----------3-----------3-----------------------|
|-------------------------------------------------|

  *     .      .     .     *     .     .     .     *       .     .     .     *     .     .     .
|-----------19-------------------------------------10---10-9---9-7---5-5-----------------------------|
|-19-----------------------10--------7---------------------------------------------------------------|
|----------------------------------------------------------------------------------------------------|
|----------------------------------------------------------------------------------------------------|

  *     .     .     .     *     .     .     .     *     .     .     .     *     .     .     .
|-------------------------------------------------------------------------------------------------|
|-------------------------------------------------------------------------------------------------|
|-3---------2-------------1---------0-------------7-----6-----5---------3-------------------------|
|-------------------------------------------------------------------3-----------------------------|


Tag
  *     .     .     .     *     .     .     .     *     .     .     .     *     .     .     .
|-------------------------------------------------9-----8-----7---------5-------------------------|
|-5-----4-----3-----------------------------------------------------5-----------------------------|
|-----------------------3-------------------------------------------------------------------3-----|
|-------------------3-----------------------------------------------------------------------------|


Tr: PD.  nov 2003
2.PD 16 Nov 2003 11:02

Queen: '39
bass tab

double bass with bass tuning (E A D G),

This transcription uses F A# D# G# tuning.


Verse
  *   .   .   .   *   .   .   .   *   .   .   .   *   .   .   .   *   .   .   .
|---------------------------------------------------------------------------------|
|-5-5--5--5---5-------------------------------------------------------------------|
|-----------------5-------5-------7-------7-------3-------------x-5-------5-------|
|---------------------5-------5-------7-------7-------3---3---3-------5-------5---|

  *   .   .   .   *   .   .   .   *   .   .   .   *   .   .   .
|---------------------------------------------------------------4-|
|-----------------------------------------------4-5-------5---5---|
|-7-------5---5---3-------3-----x-5-------5---7-------5-----------|
|-----7---------------3-------3-------5---------------------------|

  *   .   .   .   *   .   .   .   *   .   .   .   *   .   .   .
|-----------------------------5---------------------------5-4-----|
|---------------------4---7---------------4---5---7-----------7---|
|-5-------5-------6---------------7-----------------------------5-|
|-----5-------5---------------------------------------------------|

  *   .   .   .   *   .   .   .   *   .   .   .   *   .   .   .
|---------------4-------------------------------------------------|
|-5-------5---5-------------------2-------------------------------|
|-----5-----------5-------5---3-------3---5---3-----5-5-5-5-5-5-5-|
|---------------------5---------------------------3---------------|


Chorus
  *   .   .   .   *   .   .   .   *   .   .   .   *   .   .   .
|---------------------------------------------4-------------------|
|-5-------5---------------5-------5-------5---------------------4-|
|-----5-------5---3-----------5-------5-----------5-------5-5-7---|
|---------------------3-------------------------------5-----------|

  *   .   .   .   *   .   .   .   *   .   .   .   *   .   .   .
|-----------------------------------------------------------------|
|-5---4-----------------------------------------4-5-------5-------|
|---------7---5---3---2---0-----0-2---/3--5---7-------5---------5-|
|-----------------------------3-----------------------------------|


Bridge
  *   .   .   .   *   .   .   .   *   .   .   .   *   .   .   .
|-----------------------------------------------------------------|
|-----------------------------------------------------------------|
|-6-------6-------6-------6---------------------------------------|
|---------------------------------8-------8-------8-------8-------|

  *   .   .   .   *   .   .   .   *   .   .   .   *   .   .   .
|-----------------------------------------------------------------|
|-----------------------------------------------------------------|
|-----------------------------------------------------------------|
|-5-------5-------5-------5-----5/8-------------------------------|

...

Verse
  *   .   .   .   *   .   .   .   *   .   .   .   *   .   .   .   *   .   .   .
|---------------------------------------------------------------------------------|
|-5-5--55-5---5-------------------------------------------------------------------|
|-----------------5-------5-------7-------7-------3-----3-------3-5-------5-----5-|
|---------------------5-------5-------7-------7-----------3---3-------5-------5---|

  *   .   .   .   *   .   .   .   *   .   .   .   *   .   .   .
|-------------7---------------------------------------------------|
|-------------------------------------------------5-------5-----5-|
|-7-------5-------3-------3-----3-5-------5-----5-----5-------5---|
|-----7---------------3-------3-------5-------5-------------------|

  *   .   .   .   *   .   .   .   *   .   .   .   *   .   .   .
|-----------------------------5---------------------------5-4-----|
|---------------------4---7---------------4---5---7-----------7---|
|-5-------5---5---6---------------7-----------------------------5-|
|-----5-----------------------------------------------------------|

  *   .   .   .   *   .   .   .   *   .   .   .   *   .   .   .
|---------------4-------------------------------------------------|
|-5-------5---5-------------------2-------------------------------|
|-----5-----------5-------5---3-------3---5---3-----5-5-5-5-5-5-5-|
|---------------------5---------------------------3---------------|

Chorus
  *   .   .   .   *   .    .   .   *   .   .   .   *   .   .   .
|----------------------------------------------4_/_7---------------|
|-5-------5-----5-------2-/5-------5-------5-------------5---------|
|-----5-------5---3--------------5-----5-------------------5-----5-|
|---------------------3--------------------------------------------|

  *   .   .   .   *   .   .   .   *   .   .   .   *   .   .   .
|-----------------------------------------------------------------|
|-5---4-----------------------------------------4-5---------------|
|---------7---5---3---2---0-----0-2---/3--5---7---------5-5-5-5-5-|
|-----------------------------3-----------------------------------|


Chorus
  *   .   .   .   *   .   .   .   *   .   .   .   *   .   .   .
|------------------------------------------------/7---------------|
|-5-------5-----5--------(5)------5-------5-----5x------7---------|
|-----5-------5--(3)--3-------5-------5-------5-----------5-----5-|
|-----------------------------------------------------------------|
                                                (D)

  *   .   .   .   *   .   .   .   *   .   .   .   *   .   .   .
|-----------------------------------------------------------------|
|-5---4-----------------------------------------------------------|
|---------7---5---3---2---0-------7-------5-----------------------|
|-----------------------------------------------------------------|

Tr: PD. nov. 2003
3.PD 16 Nov 2003 11:04


Queen: Sweet Lady
bass tab

Intro:
  *   .   .   *   .   .   *   .   .   *   .   .   *
|-------------------------------------------------|
|-------------------------------------2-----------|
|-----------------------------------------------2/|
|---------------------------------------3b--0-----|

  *   .   .   *   .   .   *   .   .   *   .   . 
|-------------------------------------------------|
|-------------------------------------------------|
|/7-----------------------------------------------|
|-----------------------------------0-4-5---6---7-|

  *   .   .   *   .   .   *   .   .   *   .   . 
|-------------------------------------------------|
|---------------------------------7\--------------|
|-------7---x-5-5-5-5---5-----7-------------7-----|
|-0-4-7-------------------5-----------0-4-7-----5-|

  *   .   .   *   .   .   *   .   .   *   .   . 
|-------------------------------------------------|
|---------------4-7-4---4---------7\--------------|
|-7-7-7-7--(5)5---------------7-------------7-----|
|-------------------------5-----------0-4-7-------|


Verse:
  *   .   .   *   .   .   *   .   .   *   .   . 
|-------------------------------------------------|
|-------------------7-----------------------------|
|-7-7-7-7-------4-7-------------------------7-----|
|-------------5-----------7---5-------0-4-7-------|

  *   .   .   *   .   .   *   .   .   *   .   . 
|-------------------------------------------------|
|-------------------7-----------------------------|
|-------7-------4-7-------------------------7-----|
|-0-4-7-------5-----------7---5-------0-4-7-------|

  *   .   .   *   .   .   *   .   . 
|-------------------------------------|
|-------------------------------------|
|---!---------------------------7-----|
|-5/6-5-5-----7---5-------0-4-7-------|

  *   .   .   *   .   .   *   .   .   *   .   . 
|-------------------------------------------------|
|-------------------------------------------------|
|-------------------------------------------------|
|-7-7-7-7-7-7-7-7-7-7-7-7-9-9-9-9-9-9-5-5-5-5-5-5-|

  *   .   .   *   .   .   *   .   .   *   .   . 
|-------------------7-----------------------------|
|---------------4-7---------------7---------------|
|-7-7-7-7---7-5---------------4-7-----------7-----|
|-------------------------5-5-------5-0-4-7-----5-|


re-intro
  *   .   .   *   .   .   *   .   .   *   .   . 
|-------------------------------------------------|
|---------------4-7-4-------------7-----------5---|
|-7---7-7-----5---------------7-------4-5-6-7---7-|
|-------------------------5---------5-------------|


Chorus
  *   .   .   *   .   .   *   .   .   *   .   . 
|-------------------------------------------------|
|---------5---75-7-5--5-----------5---75-7-5--5---|
|-75-7-5------------7---7-75-7-5------------7---7-|
|-------7---7-------------------7---7-------------|

  *   .   .   *   .   .   *   .   .   *   .   . 
|-------------------------------------------------|
|---------5---75-7-5--5---------------------------|
|-75-7-5------------7---7-33-3-33-3-3-------------|
|-------7---7-------------------------55-5-55-5---|

  *   .   .   *   .   . 
|-------------------------|
|-------------------------|
|-77-7-77-7-7-7\----------|
|-------------------------|


Verse
  *   .   .   *   .   .   *   .   .   *   .   . 
|-------------------------------------------------|
|-------------------------------------------------|
|-7v--------7-------------------------------7-----|
|-------------5-----5---0-7---5-------0-4-7-------|

  *   .   .   *   .   .   *   .   .   *   .   . 
|-------------------------------------------------|
|-------------------7-----------------------------|
|-------7-------4-7-------------------------7-----|
|-0-4-7-------5-----------7---5-------0-4-7-------|

  *   .   .   *   .   .   *   .   . 
|-------------------------------------|
|-------7-----------------------------|
|---4-7-------------------------7-----|
|-5-----------7---5-------0-4-7-------|

  *   .   .   *   .   .   *   .   .   *   .   . 
|-------------------------------------------------|
|-------------------------------------------------|
|-------------------------------------------------|
|-7-7-7-7-7-7-7-7-7-7-7-7-9-9-9-9-9-9-5-5-5-5-5-5-|

  *   .   .   *   .   .   *   .   .   *   .   . 
|-------------------7-----------------------------|
|---------------4-7---------------7-----------75--|
|-7-7-7-7-----5---------------7\------4-5-6-7---7-|
|-------------------------5-5-------5-------------|

 

Chorus
  *   .   .   *   .   .   *   .   .   *   .   . 
|-------------------------------------------------|
|---------5---75-7-5--5-----------5---7--7-5--5---|
|-75-7-5----7-------7---x-75-7-5----7-------7---7-|
|-------7-----------------------7-----------------|

  *   .   .   *   .   .   *   .   .   *   .   . 
|-------------------------------------------------|
|---------5---7--7-5--5---------------------------|
|-75-7-5----7-------7---7-3--3-33-3-3---------4-5-|
|-------7-----------------------------55-5-55-----|

  *__3___  .   *   .   . 
|--------------------------|
|--------------------------|
|-7--7--7--7---------------|
|--------------------------|


re-intro
  *   .   .   *   .   .   *   .   .   *   .   . 
|-------------------------------------------------|
|-------------------------------------------------|
|-7\----------------------------------------------|
|-------------------------------------------------|

  *   .   .   *   .   .   *   .   .   *   .   . 
|-------------------------------------------------|
|-------------------------------------------------|
|-------------------------------------------7---7-|
|-------------------------------------0-4-7-------|


Bridge:
 4/4
  *   .   .   .   *   .   .   .   *   .   .   .   *   .   .   .
|-----------------------------------------------------------------|
|-----------------------------------------------------------------|
|-----------------5-5-5-----------7---7---7---7---7-7---7---7---7-|
|-7-7-7-7-7-7-7-7-------5---5---5---------------------------------|
                                                 3/4
  *   .   .   .   *   .   .   .   *   .   .   .   *   .   .
|-------------------------------------------------------------|
|-----------------------------------------7-------------------|
|-------------------------------------------------------------|
|-7---------7-7-7-9-------10------5---------------------------|


re-intro
  *   .   .   *   .   .   *   .   .   *   .   .
|-------------------------------------------------|
|-------------------------------------------------|
|-------------------------------------------------|
|-------------------------------------------------|

  *   .   .   *   .   .   *   .   . 
|-------------------------------------|
|-------7-x---------------------------|
|---4-7-----x-------------------7---7-|
|-5-----------7---5----\--0-4-7-------|


Chorus
  *   .   .   *   .   .   *   .   .   *   .   . 
|-------------------------------------------------|
|---------5---75-7-5--5-----------5---75-7-5--5---|
|-7--7-5------------7---7-75-7-5------------7---7-|
|-------7---7-------------------7---7-------------|

  *   .   .   *   .   .   *   .   .   *   .   . 
|-------------------------------------------------|
|---------5---75-7-5--5---------------------------|
|-75-7-5----7-------7---7-33-3-33-3-3---------4-5-|
|-------7-----------------------------55-5-55-----|

  *   .   .   *   .   .   *   .   .   *   .   . 
|-------------------------------------------------|
|-------------------------------------------------|
|-75-7-5--5-7-75-7-5--5-7-77-7-77-7-7----4-5-7----|
|-------7-----------7-----------------55-------5--|

  *   .   .   *   .   .   *   .   .   *   .   . 
|-------------------------------------------------|
|-------------------------------------------------|
|-7--7-5--5-7---------4-5-7--7-5--5-7-------------|
|-------7-----5-5-5-5-----------7-----5-5-5-5-5-5-|

  *   .   .   *   .   .   *   .   .   *   .   . 
|-------------------------------------------------|
|-------------------------------------------------|
|-------------------------7-7-7-7-7-7-7-7-7-7-7-7-|
|-8-8-8-8-8-8-5-5-5-5-5-5-------------------------|


Solo:
  *   .   .   *   .   .   *   .   .   *   .   .
|-------------------------------------------------|
|-----------------------4-------------------4-5-4-|
|-7-5-4---------4-5-6-7---7-5-4---------4-7-------|
|-------7-5-4-5-----------------7-5-4-5-----------|

  *   .   .   *   .   .   *   .   .   *   .   .
|-------------------------------------------------|
|-------------------4-5-4---2-3-4-5-6-7-5-4-------|
|-7-5-4---------4-7-------3-----------------7-5-4-|
|-------7-5-4-5-----------------------------------|

  *   .   .   *   .   .   *   .   .   *   .   .
|-------------------6-9-6-------------------------|
|---------------6-9-------------------------4-5-4-|
|-7-5-4---4-5-7-----------7-5-4---------4-7-------|
|-------7-----------------------7-5-4-5-----------|

  *   .   .   *   .   .   *   .   .   *   .   .
|-------------------------------------------------|
|-------------------4-5-4-------------------4-5-4-|
|-7-5-4---------4-7-------7-5-4---------4-7-------|
|-------7-4-5-5-----------------7-5-4-5-----------|

  *   .   .   *   .   .   *   .   .   *   .   .
|-------6-9-6-------------------6-9-7-------------|
|---6-9-------------4-7-4---6-9-------7-5-4---4-5-|
|-7-------------4-7-------7-----------------7-----|
|-------------5-----------------------------------|

  *   .   .   *   .   .   *   .   .   *   .   .
|-------6-7-6-------------------------------------|
|---6-9-------7-5-4-------------------------4-7-5-|
|-7-----------------7-5-4-7-5-4---------4-7-------|
|-------------------------------7-5-4-5-----------|

  *   .   .   *   .   .   *   .   .   *   .   .
|-------6-9-6---6-9-6---6-9-6---------------------|
|---6-9-------7-------7---------------------------|
|-7---------------------------7-7-7-7-7-7---------|
|-----------------------------------------5-5-5-5-|

  *   .   .   *   .   .   *   .   .   *   .   .
|-------------------------------6-9-6-------------|
|-------------------4-7-4---6-9-------7-7-7-7-7-7-|
|-7-7-7-7-7-7---4-7-------7-----------------------|
|-------------5-----------------------------------|

  *   .   .   *   .   .   *   .   .   *   .   .
|-------------------------------------------------|
|-------------7-7-7-7-7-7-----6-9-6---7-7-7-7-7-7-|
|-7-7-7-7-7-7-------------7-7-------7-------------|
|-------------------------------------------------|

  *   .   .   *   .   .   *   .   .   *   .   .
|------------------------------------------------...
|-----6-9-6---7-7-7-7-7-7-----6-9-6---7-7-7-7-7-7...
|-7-7-------7-------------7-7-------7------------...
|------------------------------------------------...


Tr: PD. nov 2003

 

4.PD 16 Nov 2003 11:04

Queen: Lazing On A Sunday Afternoon

Verse:
  *     .     .     .     *     .     .     .     *     .     .     .     *     .     .     .
|-------------------------------------------------------------------------18----18----17\---------|
|-------------------------------------------------------------------------------------------------|
|-6-----6-----6-----6-----6-----6-----6-----6-----6-----6-----6-----6-----------------------------|
|-------------------------------------------------------------------------------------------------|

  *     .     .     .     *       .       .     .      *     .     .     .     *     .     .    .   
|------------------------------------------------------------------------------------------8-----------|
|---------------------------------8----10-------10---8-6---------6-8-----------------8-----------------|
|-8---------8-6---------8-10---10---10-----------------------------------------6-----------------------|
|------------------------------------------------------------------------------------------------------|

  *     .     .     .     *     .     .     .     *     .     .     .     *     .     .     .
|-------------------------------12\---------------------------------------------------------------|
|-------------------------------------------------------------------------------------------------|
|-5-----5-----5-----5--/--10----------------------5-----5-----4-----4-----3-----------------------|
|-------------------------------------------------------------------------------------------------|

  *     .     .     .     *     .     .     .     *     .     .     .     *     .     .     .
|-------------------------------------------------------------------------------------------------|
|-------------------------------------------------------------------------------------------------|
|-------------------------------------------------------------------------------------------------|
|-------------------------------------------------------------------------------------------------|

  *     .     .     .     *       .       .     .      *     .     .     .     *     .      .    .
|-------------------------------------------------------------------------------------------------------|
|---------------------------------8----10-------10---8-6---------6-8---------8-10--------10-12----------|
|-8---------8-6-----6---6-10---10---10------------------------------------------------------------------|
|-------------------------------------------------------------------------------------------------------|

  *     .     .     .     *     .      .     .       *     .      .     .     *     .     .    .
|-----------------------------------------------------------------------------------------8-----------|
|-6---------6-8---------8-10--------10-12------10-12-13--------13-15----\-----------8-----------------|
|-----------------------------------------------------------------------------6-----------------------|
|-----------------------------------------------------------------------------------------------------|

Solo
  *     .     .     .     *     .     .     .     *     .     .     .     *     .     .     .
|-------------------------------------------------------------------------12----12----11\---------|
|-------------------------------------------------------------------------------------------------|
|-------------------------------------------------------------------------------------------------|
|-5-----5-----5-----5-----5-----5-----5-----5-----5-----5-----5-----5/----------------------------|

  *     .     .     .     *     .     .     .     *     .     .     .     *     .     .     .
|-------------------------------------------------------------------------------------14----------|
|-------------------------------------------------------------------------------14----------------|
|-------------------------------7---9-------9---7-5---------5-7-----------12----------------------|
|-7---------7-5---------5-9---9---9---------------------------------------------------------------|

 

Tr. PD 2003 november

5.PD 16 Nov 2003 11:05

Queen: I'm In Love With My Car
bass tab

Intro
  *   .   .   *   .   .   *   .   .   *   .   .  
|-------------------------------------------------|
|-------------------------------------------------|
|-5-5-5-5-5-5-5-5-5-5-5-5-5-5-5-5-5-5-5-5-5-5-5-5-|
|-------------------------------------------------|

  *   .   .   *   .   .   *   .   .   *   .   .  
|-------------------------------------------------|
|-------------------------------------------------|
|-5-5-5-5-5-5-5-5-5-5-5-5-5-5-5-5-5-5-5-5-5-5-5-5-|
|-------------------------------------------------|


pre-Verse
  *   .   .   *   .   .   *   .   .   *   .   .  
|-------------------------------------------------|
|-------------------------------------------------|
|-------------7-----------------------7-----------|
|-0-------------------7---0-------------------7---|

  *   .   .   *   .   .   *   .   .   *   .   .  
|-------------------------------------------------|
|-------------------------------------------------|
|-------------------2h3---5-----------5-------5/--|
|-3-----------3-----------------------------5-----|


Verse
  *   .   .   *   .   .   *   .   .   *   .   .  
|-------------------------------------------------|
|-------------------------------------------------|
|-------------------------------------------------|
|-0-----------------------3-------------------3---|

  *   .   .   *   .   .   *   .   .   *   .   .  
|-------------------------------------------------|
|-------------------------------------------------|
|-5-----------------------3-----------------------|
|-------------------------------------------------|


Verse:
  *   .   .   *   .   .   *   .   .   *   .   .  
|-------------------------------------------------|
|-------------------------------------------------|
|-------------------------7----------h7-----5-----|
|-0-----------0-------------------------------7---|

  *   .   .   *   .   .   *   .   .   *   .   .  
|-------------------------------------------------|
|-------------------------------------------------|
|-------------------------------------------------|
|-3-----------3-----------3-----------3---3---3---|

  *   .   .   *   .   .   *   .   .   *   .   .  
|-------------------------------------------------|
|-------------------------------------------------|
|-5-----------5-------5---5-----------5---5---5---|
|-------------------5-------------------5---5---5-|

  *   .   .   *   .   .   *   .   .   *   .   .  
|-------------------------------------------------|
|-------------------------------------5---5---5---|
|-3-----------3-----------3-----------3---3---3/--|
|---------------------3---------------------------|

Chorus
  *   .   .   *   .   .   *   .   .   *   .   .  
|-------------------------------------------------|
|-------------------------------------------------|
|---------------------------------------------2-3-|
|-0-----------0-------0---3-----------3---3-------|

  *   .   .   *   .   .   *   .   .   *   .   .  
|-------------------------------------------------|
|-------------------------------------------------|
|-5-----------5-------5---3-----------3---3---3/--|
|-------------------5-----------------------------|

  *   .   .   *   .   .   *   .   .   *   .   .  
|-------------------------------------------------|
|-------------------------------------------------|
|---------------------------------------------2-3-|
|-0-----------0-------0-2-3-----------3---3-------|

  *   .   .   *   .   .   *   .   .   *   .   .   *   .   .   *   .   .
|-------------------------------------5-----------------------------------|
|-----------------------------------------5-----5-------------------------|
|-5-----------5-------5---3-------------------3---5-----------5---5---5---|
|-------------------5-----------------------------------------------------|


Bridge:
  *   .   .   *   .   .   *   .   .   *   .   .  
|-------------4-----2---4------------h4---2---2h4-|
|---------------------4---------------------4-----|
|-2-----------------------2-----------------------|
|-------------------------------------------------|

  *   .   .   *   .   .   *   .   .   *   .   .  
|-------------5-----3-----------------5---3---3-5-|
|---------------------5---------------------5-----|
|-3-----------------------3-----------------------|
|-------------------------------------------------|

  *   .   .   *   .   .   *   .   .   *   .   .  
|-------------4-----2----------------h4-----2---2-|
|---------------------4-----------------------4---|
|-2-----------------------2-----------------------|
|-------------------------------------------------|

  *   .   .   *   .   .   *   .   .   *   .   .  
|-4/5---------3-----------------------5---5---5---|
|---------------------5---------------------------|
|-------------------------3-------------3---3---3-|
|-------------------------------------------------|


re-intro:
  *   .   .   *   .   .   *   .   .   *   .   .  
|-------------------------------------------------|
|-------------------------------------------------|
|-5-5-5-5-5-5-5-5-5-5-5-5-5-5-5-5-5-5-5-5-5-5-5-5-|
|-------------------------------------------------|

  *   .   .   *   .   .   *   .   .   *   .   .  
|-------------------------------------------------|
|-------------------------------------------------|
|-5-5-5-5-5-5-5-5-5-5-5-5-5-5-5-5-5-5-5-5-5-5-5-5-|
|-------------------------------------------------|

Verse
  *   .   .   *   .   .   *   .   .   *   .   .  
|-------------------------------------------------|
|-------------------------------------------------|
|-------------7-----------------------7-------7---|
|-0-------------------7---0-----------------7---7-|

  *   .   .   *   .   .   *   .   .   *   .   .  
|-------------------------------------------------|
|-------------------------------------------------|
|---------------------------------------------2-3-|
|-3-----------3---3---3---3-----------3---3-------|

  *   .   .   *   .   .   *   .   .   *   .   .  
|-------------------------------------------------|
|-------------------------------------------------|
|-5-----------5-------5---5-----------5---5---5---|
|-----------------5---------------------5---5---5-|

  *   .   .   *   .   .   *   .   .   *   .   .  
|-------------------------------------------------|
|-------------2-----------------------2-----2-----|
|-3---------------3---3---3---------------3---3/--|
|-------------------------------------------------|


Chorus
  *   .   .   *   .   .   *   .   .   *   .   .  
|-------------------------------------------------|
|-------------------------------------------------|
|---------------------------------------------2-3-|
|-0-----------0-------0-2-3-----------3---3-------|

  *   .   .   *   .   .   *   .   .   *   .   .  
|-------------------------------------5-----------|
|-----------------------------------------5---5---|
|-5-----------5---5---5/7-3-----------------3---3-|
|-------------------------------------------------|

  *   .   .   *   .   .  
|-------------------------|
|-------------------------|
|-3-----3-3-3-3-3-3-3-3-3-|
|-------------------------|

  *   .   .   *   .   .   *   .   .   *   .   .  
|-------------------------------------------------|
|-------------------------------------------------|
|-------------7---------------------------2---3---|
|-0-----------------7-0---3-----------3-----------|

  *   .   .   *   .   .   *   .   .   *   .   .  
|-------------------------------------5-------5---|
|-----------------7-------------------------5---5-|
|-5-----------5-------5---3-----------------------|
|-------------------------------------------------|

  *   .   .   *   .   .  
|-------------------------|
|-------------------------|
|-3-----3-3-3-3-3-3-3-3-3-|
|-------------------------|


outro (re-intro)
  *   .   .   *   .   .   *   .   .   *   .   .  
|-------------------------------------------------|
|-------------------------------------------------|
|-5-5-5-5-5-5-5-5-5-5-5-5-5-5-5-5-5-5-5-5-5-5-5-5-|
|-------------------------------------------------|

  *   .   .   *   .   .   *   .   .   *   .   .  
|-------------------------------------------------|
|-------------------------------------------------|
|-5-5-5-5-5-5-5-5-5-5-5-5-5-5-5-5-5-5-5-5-5-5-5-5-|
|-------------------------------------------------|

  *   .   .   *   .   .   *   .   .   *   .   .  
|-------------------------------------------------|
|-------------------------------------------------|
|-5-5-5-5-5-5-5-5-5-5-5-5-5-5-5-5-5-5-5-5-5-5-5-5-|
|-------------------------------------------------|

...

Tr: PD. nov. 2003
6.PD 16 Nov 2003 11:06


Queen: Good Company
bass tab

Intro:
  *   .   .   .   *   .   .   .   *    .     .    .    *   .   .   .
|----------------------------------------------------------------------|
|-9-------------------------------11---11-11---11-11-------------------|
|-----------------5------------------------------------9---------------|
|----------------------------------------------------------------------|

...

Chorus
  .   .   .   *   .   .   .   *   .   .   .   *   .   .   .   *   .   .   .
|-----------------------------------------------------------------------------|
|-4---3---------------------------------------4---4---4---4---4---4---4---4---|
|---------6---4---4---4---4---4---4---4---4-----------------------------------|
|-----------------------------------------------------------------------------|


  *   .   .   .   *   .   .    .    *    .    .    .    *   .    .    .
|---------9---9--------------------------------------------------11-------|
|-4---4-----------9---9---10---10---11---11---11---11-----8-11------------|
|-------------------------------------------------------9-----------------|
|-------------------------------------------------------------------------|


Verse:
  *   .   .   .   *   .   .   .   *   .   .   .   *   .   .   .
|-----------------------------------------------------------------|
|---------------------------------4---4---4---4---4---4---4---4---|
|-4---4---4---4---4---4---4-4-4-----------------------------------|
|-----------------------------------------------------------------|

  *   .   .   .   *   .   .   .   *   .   .   .   *   .   .   ._3__
|-------------------------------------------------------------------|
|---------------------------------4---4---4---4---4---4---4---4-4-4-|
|-4---4---4---4---4---4---4---4-------------------------------------|
|-------------------------------------------------------------------|


  *   .   .   .   *   .   .    .    *    .    .    .    *   .    .    .
|---------9---9--------------------------------------------------11--------|
|-4---4-----------9---9---10---10---11---11---11---11-----8-11--------11---|
|-------------------------------------------------------9------------------|
|--------------------------------------------------------------------------|

 

Chorus
  *   .   .   .   *   .   .   .   *   .   .   .   *   .   .   .
|-----------------------------------------------------------------|
|---------------------------------4---4---4---4---4---4---4-x-4---|
|-4---4---4---4---4---4---4-4-4-----------------------------------|
|-----------------------------------------------------------------|

  *   .   .   .   *   .   .   .   *   .   .   .   *    .    .    .
|-------------------------------------------4-6---11---11---11-9-8---|
|---------------------------------4---4---4--------------------------|
|-4---4---4---4---4---4---4-x-4--------------------------------------|
|--------------------------------------------------------------------|

  *    .    .   .   *   .   .    .    *    .    .    .    *   .    .    .
|-11--------9---9--------------------------------------------------11-------|
|-------------------9---9---10---10---11---11---11---11-----8-11------------|
|---------------------------------------------------------9-----------------|
|---------------------------------------------------------------------------|


re-intro:
  *   .   .   .   *   .   .   .   *    .     .    .    *   .    .    .
|---------------------------------------------------------------11--------|
|-9-------------------------------11---11-11---11-11-----8-11--------11\--|
|-----------------5------------------------------------9------------------|
|-------------------------------------------------------------------------|


Bridge:
  *   .   .   .   *   .   .   ._3__ *   .   .   .   *   .   .   .
|-------------------------------------------------------------------|
|-----------------------------3-4-5-6---6---6---6---6---6---4-3-----|
|-6---6---6---6---6---6---6-------------------------------------6---|
|-------------------------------------------------------------------|

  *   .   .   .   *   .   ._3__ .   *   .   .   ._3__ *   .   .   ._3__
|---------6---6-----------6-4-4-----------------------------------------|
|-------------------------------6---4---4---4---4-3-x-1---1---1---3-4-5-6
|-4---4-----------4---4-------------------------------------------------|
|-----------------------------------------------------------------------|

  *   .   .   ._3__ *    .    .    .    *   .   .   ._3__ *   .   .   .
|-------------7-8-9-10---10---10---10---9---9---9---9-9-9-8---8---8---8---|
|-6---6---6---------------------------------------------------------------|
|-------------------------------------------------------------------------|
|-------------------------------------------------------------------------|

  *   .   .   ._3__   *   .   .   .   *   .   .   .___3___ *   .   .   .
|-7---7---7---7-7-7-------------------------------12-13-14-15--------------|
|---------------------9---9---9---9/--8---8---8----------------------------|
|--------------------------------------------------------------------------|
|--------------------------------------------------------------------------|


Verse:
  *   .   .   .   *   .   .   .   *   .   .   .   *   .   .   .
|-----------------------------------------------------------------|
|---------------------------------4---4---4---4---4---4---4---4---|
|-4---4---4---4---4---4---4---4-----------------------------------|
|-----------------------------------------------------------------|

  *   .   .   .   *   .   .   .   *   .   .   .__3__ *    .__3__ .    .
|---------------------------------------------8-9-10-11---8-9-10-11---11---|
|---------------------------------4---4---4--------------------------------|
|-4---4---4---4---4---4---4---4--------------------------------------------|
|--------------------------------------------------------------------------|


  *   .   .   .   *   .   .    .    *    .    .    .__3__ *    .   .    .
|---------9---9------------------------------------8-9-10-11-------11-------|
|-4---4-----------9---9---10---10---11---11---11----------------------------|
|--------------------------------------------------------------9--------9---|
|---------------------------------------------------------------------------|


Verse-solo
  *   .   .   .   *   .   .   .   *   .   .   .   *   .   .   .
|-----------------------------------------------------------------|
|---------------------------------4---4---4---4---4---4---4---4---|
|-4---4---4---4---4---4---4---4-----------------------------------|
|-----------------------------------------------------------------|

  *   .   .   .   *   .   .   .   *   .   .   .   *   .   .   .
|-----------------------------------------------------------------|
|---------------------------------4---4---4---4---4---4---4-x-4---|
|-4---4---4---4---4---4---4---4-----------------------------------|
|-----------------------------------------------------------------|


  *   .   .   .   *   .   .    .    *    .    .    .    *   .    .    .
|-11-------------------------------------------------------------11-8------|
|-----------------9-----------------11---11---11---11-----8-11--------11---|
|-------------------------------------------------------9------------------|
|--------------------------------------------------------------------------|

  *   .   ._3__ .   *   .   .    .    *    .    .   .   *         *         *
|---------9-9-9-9---------------------------------------------------------------------|
|-4---4-----------------9---10---10---11---11---9-8-6---9-----------------------------|
|---------------------------------------------------------------------------9---------|
|-------------------------------------------------------------------------------------|

...

Verse:
  *   .   .   .   *   .   .   .   *   .   .   .   *   .   .   .__3__
|-------------------------------------------------------------8-9-11-|
|---------------------------------4---4---4---4---4------------------|
|-4---4---4---4---4---4---4---4--------------------------------------|
|--------------------------------------------------------------------|

  *   .   .   .   *   .   .   .   *   .   .   .__3__ *    .__3__ .    .
|---------------------------------------------8-9-10-11---8-9-10-11---11---|
|---------------------------------4---4---4--------------------------------|
|-4---4---4---4---4---4---4---4--------------------------------------------|
|--------------------------------------------------------------------------|


  *   .   .   .   *   ._3__ .    .    *    .    .    .    *    .    .    .   *   .   .   .
|---------9---9---8---8-8-8-------------------------------------------------------------------|
|-4---4---------------------10---10---10---10---10---10---11---11---11-9-8-------8---9---11---|
|----------------------------------------------------------------------------9----------------|
|---------------------------------------------------------------------------------------------|


Verse-solo
  *   .   .   .   *   .   .   .   *   .   .   .__3__ *    .__3__ .    .__3__
|---------------------------------------------8-9-10-11---8-9-10-11---8-9-11-|
|---------------------------------4---4---4----------------------------------|
|-4---4---4---4---4---4---4---4----------------------------------------------|
|----------------------------------------------------------------------------|

  *   .   .   .   *   .   .   .   *   .   .   .   *   .   .   .__3__
|---------6---6-----------6---6-------------------------------8-9-11-|
|---------------------------------4---4---4---4---4---4---4----------|
|-4---4-----------4---4----------------------------------------------|
|--------------------------------------------------------------------|


  *   .   .   .   *   .   .    .    *    .    .    .    *   .    .    .
|---------9---9---8---8------------------------------------------11-------|
|-4---4-------------------10---10---11---11---11---11-----8-11------------|
|-------------------------------------------------------9-------------9---|
|-------------------------------------------------------------------------|


Solo... (semi-shuffle beat)
  *   .   .    .   *    .   .    .   *   .   .    ._3__ *    .    .    .
|-------------------------------------------------8-8-8-11---8--------------|
|--------------8---11---8----------------8---11-------------------11-8------|
|-----8---11----------------11-9-8---9---------------------------------11---|
|-9-------------------------------------------------------------------------|

  *   .   .    .   *    .   .    .    *   .   .   ._3__ *    .   .    .
|-------------------------------------------------8-8-8-11---9---8--------|
|--------------8---11---8---11-8-11-------8---11-------------------11-8---|
|-----8---11--------------------------9-----------------------------------|
|-9-----------------------------------------------------------------------|


  *   .   .   .   *   .   .___3___ .    *    .   .   .    *   .    .    .
|---------9-9-9---8---8--------------------------------------------11-------|
|-4---4-------------------10-10-10-10---11---9---8----------8-11------------|
|----------------------------------------------------11---9-----------------|
|---------------------------------------------------------------------------|


outro (re-intro)
  *   .   .   .   *   .   .   .   *    .     .    .    *   .    .     .   *
|---------------------------------------------------------------11------------|
|-9-------------------------------11---11-11---11-11-----8-11------11-8-------|
|-----------------5------------------------------------9------------------9---|
|-----------------------------------------------------------------------------|

Tr: PD. nov. 2003

7.PD 16 Nov 2003 11:06

Queen: The Prophet's Song
bass tab
drop-D tuning

...
  *   .   .   .   *   .   .   .   *   .   .   .   *   .   .   .
|-----------------------------------------------------------------|
|-----------------------------------------------------------------|
|---------------------------------------------1-------------------|
D-----------------------------------------------------------------|

  *   .   .   .   *   .   .   .   *   .   .   .   *   .   .   .
|-----------------------------------------------------------------|
|-----------------------------------------------------------------|
|-0---0---0---0---0---0---0---0---0---0---0---0---0---0---0---0---|
D-----------------------------------------------------------------|


Verse:
  *   .   .   .   *   .   .   .   *   .   .   .   *   .   .   .
|-----------------------------------------------------------------|
|-------------------------------------------------------5-----7p5-|
|-0---0---0---0---0---0---0---0---0---0---3---3---5-------0-------|
D-----------------------------------------------------5-----------|

  *   .   .   .   *   .   .   .   *   .   .   .   *   .   .   .   *   .   .   .
|---------------------------------------------------------------------------------|
|---------------------------------------------2-----------7-----------------------|
|-0---0---0---0---5---5---5---5\------------------0---5/7-------------------------|
D---------------------------------2---2---2-----2---------------------------------|

  *   .   .   .   *   .   .   .   *   .   .   .   *   .   .   .
|-----------------------------------------------------------------|
|-----------------------------------------------------------------|
|-0---0---0---0---0---0---0---0---0---0---3---3-------5---5-------|
D-------------------------------------------------5---------------|

  *   .   .   .   *   .   .   .   *   .   .   .   *   .   .   .
|-----------------------------------------------------------------|
|-------------------------------------------------------------7---|
|-0-------1-------2-------3-------4-------5-------6-------7-------|
D-----------------------------------------------------------------|


Chorus:

  *   .   .   .   *   .   .   .   *   .   .   .   *   .   .   .
|-----------------------------------------------------------------|
|-----------------------------------------------------------------|
|-----0---5-----------5---3---5-------0---5---5-3-5---3---3-------|
D-0h3---------0-------------------0h3-----------------------------|

  *   .   .   .   *   .   .   .   *   .   .   .   *   .   .   .
|-----------------------------------------------------------------|
|-----------------------------------------------------------------|
|---------3-------1---1-3-5-----------0---5-----------------------|
D-3-------------------------------0h3---------3-------------------|

Chorus:
  *   .   .   .   *   .   .   .   *   .   .   .   *   .   .   .
|-----------------------------------------------------------------|
|-----------------------------------------------------------------|
|-----0---5-----------5---3---5-------0---5---5-3-5---3---3-------|
D-0h3---------0-------------------0h3-----------------------------|

  *   .   .   .   *   .   .   .   *   .   .   .   *   .   .   .
|-----------------------------------------------------------------|
|-----------------------------------------------------------------|
|---------3-------1---1-3-5-----------0---5-----------------------|
D-3-------------------------------0-3---------5-------------------|


  *   .   .   .   *   .   .   .  
|---------------------------------|
|---------------------------------|
|-0---0---0---0---0---0---0---0---|
D---------------------------------|

Verse:
  *   .   .   .   *   .   .   .   *   .   .   .   *   .   .   .
|-----------------------------------------------------------------|
|-------------------------------------------------------5-----7p5-|
|-0---0---0---0---0---0---0---0---0---0-2-3---3---5-------0-------|
D-----------------------------------------------------5-----------|

  *   .   .   .   *   .   .   .   *   .   .   .   *   .   .   .   *   .   .   .
|---------------------------------------------------------------------------------|
|-------------------------------------------2---2---------7-----------------------|
|-0---0---0---0---5---5---5---5\------------------0---5-7-------------------------|
D---------------------------------2---2---2---2-----------------------------------|

  *   .   .   .   *   .   .   .   *   .   .   .   *   .   .   .
|-----------------------------------------------------------------|
|-----------------------------------------------------------------|
|-0---0---0---0---0---0---0---0---0---0---3---3-----------5-------|
D-------------------------------------------------5---5-----------|

  *   .   .   .   *   .   .   .   *   .   .   .   *   .   .   .
|-----------------------------------------------------------------|
|-------------------------------------------------------------7---|
|-0-------1-------2-------3-------4-------5-------6-------7-------|
D-----------------------------------------------------------------|


Chorus:
  *   .   .   .   *   .   .   .   *   .   .   .   *   .   .   .
|-----------------------------------------------------------------|
|-----------------------------------------------------------------|
|-----0---5-----------5---3---5-------0---5---5-3-5---3---3-------|
D-0h3---------0-------------------0h3-----------------------------|

  *   .   .   .   *   .   .   .   *   .   .   .   *   .   .   .
|-----------------------------------------------------------------|
|-----------------------------------------------------------------|
|---------3-------1---1-3-5-----------0---5\----------------------|
D-3-------------------------------0-3---------4-------------------|


pre-Bridge:      5/4
  *   .   .   .   *   .   .   .    .
|----------------------------------10--|
|-----------------------------7-10-----|
|-5-------3-------1-------8-8----------|
D--------------------------------------|

                                 2/4
  *   .   .   .   *   .   .   .   *   .
|-----------------------------------------|
|-----------------------------------------|
|---------------------8---8---8-----------|
D-8---8---8---8---------------------------|

                                                 5/4
  *   .   .   .   *   .   .   .   *   .   .   .   *   .   .   .   .
|-------------7-------------------------------------------------------|
|-----------7-----------------5---------------------------------------|
|-5---5-5-8-----------------5-----5---5-5-5-5-5-5-5-5-5-5-5-5-5-3-----|
D-----------------5---5-5-8-------------------------------------------|


Bridge:
  *   .   .   .   *   .   .   .   *   .   .   .   *   .   .   .
|-----------------------------------------------------------------|
|-----------------------------------------------------------------|
|---------------------------------2-------2-------0-------0-------|
D-5-----------5---5---------2-------------------------------------|

  *   .   .   .   *   .   .   .   *   .   .   .
|-------------------------------------------------|
|-------------------------------------------------|
|-------------------------------------------3-----|
D-5---------------0-------------------------------|

  *   .   .   .   *   .   .   .   *   .   .   .   *   .   .   .
|-----------------------------------------------------------------|
|-----------------------------------------------------------------|
|---------------------------------2-----------2---0-------0-------|
D-5-------5-------5---------2-------------------------------------|

  *   .   .   .   *   .   .   .   *   .   .   .   *   .   .   .
|-----------------------------------------------------------------|
|-----------------------------------------------------------------|
|-------------------------------------------------3---------------|
D-5-------5-------0---------------3-------------------------------|


---------
interlude
---------


  *   .   .   .   *   .   .   .   *   .   .   .   *   .   .   .
|-----------------------------------------------------------------|
|-----2-------2-------2-------2-------2-------2-------2-------2---|
|---------5---------------5---------------5---------------5-------|
D-2h5-------------2h5-------------2h5-------------2h5-------------|

  *   .   .   .   *   .   .   .   *   .   .   .   *   .   .   .
|-----5---3---5-------5---3---5-------2---0---2-------2---0---2---|
|-----------------------------------------------------------------|
|-2h5-------------3h6-------------0h3-------------0h3-------------|
D-----------------------------------------------------------------|

  *   .   .   .   *   .   .   .   *   .   .   .   *   .   .   .
|-------------------------------------------------------------5---|
|-----2-------2-------2-------2-------2-------2-------2-----5-----|
|---------5---------------5---------------5---------------3-------|
D-2h5-------------2h5-------------2h5-------------2h5-------------|

  *   .   .   .   *   .   .   .   *   .   .   .   *   .   .   .
|-----5---3---5-------5---3---5-------2---0---2-------2---0---2---|
|-----------------------------------------------------------------|
|-3h6-------------3h6-------------0h3-------------0h3-------------|
D-----------------------------------------------------------------|

  *   .   .   .   *   .   .   .   *   .   .   .   *   .   .   .
|-------------2-----------2-------------------2-----------2-------|
|---------2-----------2-------2-----------2-----------2-------2---|
|-----2-----------0h3-----------------2-----------0h3-------------|
D-2h5-----------------------------2h5-----------------------------|

  *   .   .   .   *   .   .   .   *   .   .   .   *   .   .   .
|-------------2-----------2---------------------------------------|
|---------2-----------2-------------------------------------------|
|-----2-----------0h3---------------------------------------------|
D-2h5-------------------------5-----------------------------------|


  *   .   .   .   *   .   .   .   *   .   .   .   *   .   .   .
|-----------------------------------------------------------------|
|-----------------------------------------4-----------------------|
|-----0---5-----------5---3---5-------0-------5-3-5---0---0-------|
D-0h4---------0-------------------0h4-----------------------------|

  *   .   .   .   *   .   .   .   *   .   .   .   *   .   .   .
|-----------------------------------------------------------------|
|-3---------------------------------------------------------5\----|
|-----------1-----3---------------1-------------------------------|
D-------------------------------------------3-----5---------------|

  *   .   .   .   *   .   .   .   *   .   .   .   *   .   .   .
|-----------------------------------------------------------------|
|-------------------------------------------------------------7---|
|-0-------1-------2-------3-------4-------5-------6-------7-------|
D-----------------------------------------------------------------|


Chorus:
  *   .   .   .   *   .   .   .   *   .   .   .   *   .   .   .
|-----------------------------------------------------------------|
|-----------------------------------------------------------------|
|-----0---5-----------5---3---5-------0---5---5-3-5---3---3-------|
D-0h3---------0-------------------0h3-----------------------------|

  *   .   .   .   *   .   .   .   *   .   .   .   *   .   .   .
|-----------------------------------------------------3/5---------|
|-----------------------------------------------------------5---3-|
|---------3-------1---1-3-5-----------0---5---1-----1-------------|
D-3-------------------------------0h3---------------------5---3---|


Chorus:
  *   .   .   .   *   .   .   .   *   .   .   .   *   .   .   .
|-----------------------------------------------------------------|
|-----------------------------------------------------------------|
|-----0---5-----------5---3---5-------0---5---5-3-5---3---3-------|
D-0h3---------0-------------------0h3-----------------------------|

  *   .   .   .   *   .   .   .   *   .   .   .   *   .   .   .
|-----------------------------------------------------------------|
|---------------------------------------------12------------------|
|---------3-------1---1-3-5-----------0---5/----------------------|
D-3-------------------------------0h3-----------------------------|

...

  *
|------------------|
|------------------|
|-1----------------|
D------------------|

Tr: PD. nov. 2003

8.PD 16 Nov 2003 11:08


Queen: Love Of My Life
Bass tab

Verse:
  *   .   .   .   *   .   .   .   *   .    .   .   *   .   .   .
|---------------------------------------19---------------------12--|
|-10--------------19-----------------------------------------------|
|---------------------------------17---------------10--------------|
|------------------------------------------------------------------|


  *   .   .   .   *   .   .   .     *   .    .   .   *   .   .   .
|-----------------------------17-------------14------15--------------|
|-10--------------15-------------15-12----12-----------------15------|
|--------------------------------------------------------------------|
|--------------------------------------------------------------------|

 3/4
  *   .   .   *   .   .   .   *   .   *   .   .   .   *   .   .   .   *   .   .   .
|-15--14--19----------17----------------------------------------------12--14--16--19--|
|-------------17--------------15------------------------------------------------------|
|-------------------------------------------------------------------------------------|
|-------------------------------------------------------------------------------------|

 

2nd Verse:
  *   .   .   .   *     .     .   .   *   .    .   .   *   .   .     .
|-----------------------17-14---------------19---------12--14--16-19-19--|
|-10-----------------14--------------------------------------------------|
|-----------------12------------------17---------------------------------|
|------------------------------------------------------------------------|

  *   .   .   .    *    .   .   .     *   .    .     .   *    .     .   .
|---------------17--------------17-------------------14---------------------|
|-10---------------15--------------15-12----------14----------15-15---------|
|----------------------------------------------12----------13---------------|
|---------------------------------------------------------------------------|

 3/4
  *   .   .   *   .      .   .   *   .   *   .   .   .   *   .   .    .
|-15--14--19------191719-17-------------------------------------------------|
|-------------17-----------------15--------------------------------12-13-15-|
|---------------------------------------------------------------------------|
|---------------------------------------------------------------------------|

  *   .   .   .   *   .    *   .   .   .
|-15----------15--14--12--10---------------|
|------------------------------------------|
|------------------------------------------|
|------------------------------------------|


Bridge:
  *   .   .   .   *    .     .   .   *     .     .   .   *   .   .   .
|-------------------------14---------------19-15---------------------14--|
|-12-------------------14---------------15---------------15--------------|
|-------------------12---------------13----------------------------------|
|(10)--------------------------------------------------------------------|

  *     .     .   .   *     .     .       .     *   .    .   .   *   .   .   .
|-------19------------------17-17---17\16/17\--------------------------------------|
|----19----19------------14---------------------16---------------17------------17\-|
|-17------------------12-----------------------------------------------------------|
|----------------------------------------------------------------------------------|

  *   .   .   .       *   .   .   .   *   .    .   .   *   .   .   .
|-------------171514---------------------------------------------------|
|-10--12--14--------1715-----------------------------------------------|
|----------------------------------------------------------------------|
|----------------------------------------------------------------------|

  *   .   .   .   *   .   .   .   *   .   .   .   *   .   .   .
|---------------------------------17------------------------------|
|--------------------------------(14)-----------------------------|
|-10--------------8-----------------------------------------------|
|-----------------------------------------------------------------|


verse-ending reprise:
  *   .   .     .    *    .     .    .    *   .    .   *   .   .   .
|-----------------14---------15----------------------------------------|
|-12-----------14---------15------15-15------------12----------10------|
|-----------12---------13-----------------13--12-------10--------------|
|----------------------------------------------------------------------|

  *   .   .   .    *   .   .   .   *   .        .   .   *   .   .   .   *...
|----------------------------------------19p17h19\----------------------------|
|-8-------------10/12---------------------------------------------------10----|
|---------------------------------12------------------------------------------|
|-------------------------------------------------------------5-6-------------|

(could not be transcribed very accurately)
Tr: PD. nov. 2003

 

9.PD 16 Nov 2003 11:09


Queen: You're My Best Friend
bass tab
 
  *     .     .      .       *     .     .     .      *     .     .      .       *
|------------------------------------------7-8-9---------------------------------|
|------------------7-10-7---------------------------7-10---------------7-10-7----|
|---------------10--------10---------------------10-----------------10--------10-|
|-8--------------------------8---------------------------------------------------8

 

  *     .     .     .      *     .     .     .      *     .     .     .      *
|---------------7-8-9---------------------------------------------7-8-9------|
|------------------------7-10--------------7-------------------------------7-10
|---------------------10---------------------10-------------------------10---|
|-8-----------------------------------------------8------------/-------------|

  *     .     .      .       *     .     .     .      *     .     .      .       *
|------------------------------------------7-8-9---------------------------------|
|-10----------7----7-10-7---------------------------7-10---------------7-10-7----|
|---------------10--------10---------------------10-----------------10--------10-|
|----------------------------8---------------------------------------------------8


  *     .     .       .     *     .     .     .       *     .     .      .       *
|---------------------------------------------------------------------11-14---10-|
|------------------10-9---7-----------------9-10---12----------------------------|
|-------7-----10-----------------------------------------------------------------|
|-8------------------------------------------------------------------------------|

   *     .      .      .      *     .     .       .      *     .     .     .       *
10-----------12\-------------------------------------------------------------------|
|----------------------------------------------10-9---7------------------9-10---12-|
|-----------------------------------7-----10---------------------------------------|
|-----------------------------8----------------------------------------------------|

   *     .     .      .       *     .      .     .      *     .
|------------------11-14---10-----------12-----------13-------------|
12------------------------------------------------------------------|
|-------------------------------------------------------------------|
|-------------------------------------------------------------------|

  *      .      .       .       *      .     .     .      *     .     .     .         *
|-14-----17-----16------16-------------------------------------------------(12)13-10--|
|--------------------17------15------------------------10----------------------------10
|------------------------------------------------8-8----------------------------------|
|-------------------------------------------------------------------------------------|

  *     .     .     .     *     .     .     .
|-------------------------------------------------|
|-10----------------------------------------------|
|-------------------------------------------------|
|-------------------------------------------------|

 

  *     .     .      .       *     .     .     .     *     .     .     .
|----------------------------------------------------------------------------|
|------------------7-10-7----------------6-----6-----7-----7-----8-----8-----|
|---------------10--------10-------------------------------------------------|
|-8--------------------------8-----8-----------------------------------------|

  *     .     .       .     *     .     .     .
|-------5/----10------------------------------------|
|-3----------------10-------------------------------|
|---------------------8---8-------------------------|
|---------------------------------------------------|

  *       .        .     .     *     .       .     .      *
|-12------12-11-10-9-----9--------------------------------|
|------12--------------9-----7-----9-10---12-------10-9-7-|
|---------------------------------------------------------10
|---------------------------------------------------------|

  *     .     .      .       *     .     .     .      *
|-----------------12-12-------------------------------|
|--------------------------------------------------10-|
|-10----------------------10--------------------------|
|-----------------------------------------------------8

  *     .     .     .     *     .     .     .
|-------------------------------------------------|
|------------------------(10)---------------------|
|-------------------------------------------------|
|-8-----------------------------------------------|

 

2nd Verse
  *     .     .     .      *     .     .     .      *     .     .       .      *
|----------------------------------------7-8-9---------------------------------|
|-----------------7-------------------------------7-10---------------7-10-7----|
|-------------------10-------------------------10-----------------10--------10-|
|-8----------------------8-----------------------------------------------------8

  *     .     .     .      *     .     .     .      *     .     .      .      *
|---------------7-8-9----------------------------------------------7-8-9------|
|------------------------7-10--------------7--------------------------------7-10
|---------------------10---------------------10-----------------10-------10---|
|-8-----------------------------------------------8---------------------------|

  *     .     .      .       *     .     .     .      *     .     .      .       *
|------------------------------------------7-8-9---------------------------------|
|-10----------7----7-10-7---------------------------7-10---------------7-10------|
|---------------10--------10---------------------10-----------------10--------10-|
|----------------------------8---------------------------------------------------8


  *     .     .       .     *     .     .     .       *     .     .      .       *
|---------------------------------------------------------------------11-14---10-|
|------------------10-9---7-----------------9-10---12----------------------------|
|-------7-----10-----------------------------------------------------------------|
|-8------------------------------------------------------------------------------|

   *     .      .      .      *     .     .       .     *     .     .        .      *
10-----------12\--------------------------------------------------------------------|
|----------------------------------------------10-9---7-------9-----10---12/14---12-|
|-----------------------------------7-----10----------------------------------------|
|-----------------------------8-----------------------------------------------------|

   *     .     .        .      *     .      .     .      *      .     .      .
|--------11----12---13-14---10-----------12-----------13--------13----14-----------|
12-----------------------------------------------------------14--------------------|
|----------------------------------------------------------------------------------|
|----------------------------------------------------------------------------------|

  *       .      *     .     .      .       *     .     .      .        *
|-12----------10-----------------17-14-------------------------17-13----|
|--------------------------------------------------------------------15-|
|----------------------------------------15-----------------------------15
|-----------------------------------------------------------------------|

  *     .     .     .     *     .     .     .
|-------------------------------------------------|
|-------------------------------------------------|
|-15----------------------------------------------|
|-------------------------------------------------|


                             solo
  *     .     .     .       *     .     .     .      *     .     .     .
|----------------------------------------------------------------------------|
|-------------------10-7----------------6-----6------7-----7-----8-----8-----|
|------------------------10--------------------------------------------------|
|-8-------------------------8-----8------------------------------------------|

  *     .     .       .     *     .     .     .
|-------5/----10------------------------------------|
|-3----------------10-------------------------------|
|---------------------8---8-------------------------|
|---------------------------------------------------|

  *       .      .     .     *     .       .     .       *
|-12---11-10---9-------9-7-------------------------------|
|--------------------9-----9-7---9-10--/12-------10-9----|
|-----------------------------------------------------12-10
|--------------------------------------------------------|

  *     .     .     .       *     .     .     .      *
|-------------------12-------------------------------|
|-------------------------------------------------10-|
|-10---------------------10--------------------------|
|----------------------------------------------------8

  *     .     .     .      *     .     .       .     *     .     .     .      *
|--------------------------------7-8-9---------7-8-9-10-----------------------|
|-----------------------10----------------7-10-----------------------------10-|
|--------------------------------------10-------------------------------------|
|-8-----8-----8-----8------8--------------------------------------------------8

  *     .     .     .     *     .     .     .     *     .     .       .      *
|-------------------------------------------------------7-8-9----------------|
|----------------------------------------------------------------7-10-7------|
|-------------------5-6-7-8-----------------------------------10--------10-7-|
|-8-----8-----8--------------------------------------------------------------8

  *     .     .      .      *     .     .     .      *
|----------------------------------------------------|
|--------------------7---10--------------------------|
|-----------------10------------------------------10-|
|-8--------------------------------------------------8

  *     .     .      .      *     .     .     .     *     .     .      .      *
|-----------------------------------------------------------------------------|
|--------------------7---10--------------------------------------------9---10-|
|-----------------10------------------------------------------------10--------|
|-8-------------------------------------------7---8---------------------------|

   *     .     .      .     *     .     .       .       *     .     .     .
|-------------------------------------------------------------------------------|
10----------------------------------------------12---14-------------------------|
|------------------10-------------------10--(12)--------------------------------|
|---------------------7---8------/12--------------------------------------------|

Tr: PD. 1998, 2003,

10.PD 16 Nov 2003 11:11


Queen: Death On Two Legs
bass tab

Intro:
  .   *   .   .   .   *   .   .   .   *   .   .   .   *   .   .   .
|---------------------------------------------------------------------|
|-5---------------5---------------5---------------5---------------5---|
|-----5---------------4---------------5---------------4---------------|
|---------------------------------------------------------------------|

  *   .   .   .   *   .   .   .   *   .   .   .   *   .   .   .
|-----------------------------------------------------------------|
|-------------5---------------5---------------5---------------5---|
|-5---------------4---------------5---------------4---------------|
|-----------------------------------------------------------------|

  *   .   .   .   *   .   .   .   *   .   .   .   *   .   .   .
|-----------------------------------------------------------------|
|-------------5---------------5---------------5-------------------|
|-5---------------4---------------5---------------4-----------5---|
|-----------------------------------------------------------------|

  *   .   .   .   *   .   .   .   *   .   .   .   *   .   .        .
|------------------------------------------------------------19\18/19\--|
|-----------------------------------------------------------------------|
|-----------------------------------------------------------------------|
|-----------------------------------------------------------------------|

  *   .   .   .   *   .   .   .   *   .   .   .   *   .   .   .
|-----------------------------------------------------------------|
|-------------9-8-----7-----------6-------------4-5-----4---------|
|-----------9-------9-------------------------5-------5-----------|
|-7-----------------------------------------7---------------------|

  *   .   .   .   *   .   .   .   *   .   .   .   *   .   .   .
|-----------------------------------------------------------------|
|-----------------------------------------------------------------|
|-----------------------------------------------------------------|
|-2---2--22-2-2---2---2--22-2-2-0-3---3--33---3---3---3--33---3-0-|

  *   .   .   .   *   .   .   .   *   
|---------------------------------|
|---------------------------------|
|---------------------------------|
|-2---2--22-2-2--22-2-2-2-2-------|


Verse
.   *   .   *   .   .   .   *   .   .   .   *   .   .   .
|-------------------------------------------------------7---|
|-----------------------7-9-------------7-9-----------9---9-|
|---------------------9---------------9---------------------|
|-----------7-----------------------------------------------|

  *   .   .   .   *   .   .   .   *   .   .   .   *   .   .   .
|-----------------------------------------------------------------|
|-5-------5-------5-------5-----5-4-------------------------------|
|-------5-------5-------5---------------4-------------------------|
|-----------------------------------------2-----2-2-2-2-2-2-2-2-2-|

  *   .   .   .   *   .   .   .   *   .   .   .
|-------------------------------------------------|
|---------------------------------5-4---5-4-------|
|-5-----------3-5-------------3-5-----5-----5-5-5-|
|-----------5---------------5---------------------|

  *   .   .   .   *   .   .   .   *   .   .   .   
|-----------------------------------------5-------|
|---------5-------5-------5-------------5---------|
|-------5-------5-------5---------3---------------|
|-3-----------------------------------------------|


Chorus
  *   .   .   .   *   .   .   .   *   .   .   .   *   .   .       .
|-----------------------------------------------------------19\18/19\--|
|-------------9-8-----7-----------6-------------4-5-----4--------------|
|-----------9-------9-------------------------5-------5----------------|
|-7-----------------------------------------7--------------------------|

  *   .   .   .   *   .   .   .   *   .   .   .   *   .   .   .
|-----------------------------------------------------------------|
|-------------9-8-----7-------------------------------------------|
|-----------9-------9---------------------------5-----5--55-5-5---|
|-7-------------------------------5---------3-5-----------------5-|

  *   .   .   .   *   .   .   .   *   .   .   .   *   .   .   .
|-----------------------------------------------------------------|
|-----------------------------------------------------------------|
|-----------------------------------------------------------------|
|-2---2--22-2-2-0-2---2-2-22-22-0-7---7--77-7-7-5-7---7---7-7-7-6-|

  *   .   .   .   *   .   .   .   *   .   .   .   *   .   .   .
|-----------------------------------------------------------------|
|-----------------------------------------------------------------|
|---------------------------------5---------------5---5---542-x40-|
|-5---------2-3-5-----------2-3-5-----------2-3-5-----------------|

  *   .   .   .   *   .   .   .
|---------------------------------|
|---------------------------------|
|-2-------------------------------|
|-----------------2---------------|

  *   .   .   .   *   .   .   .   *   .   .   .   *   .   .   .
|-----------------------------------------------------------------|
|----------------------------------------------------------9--9-8-|
|---------------------------------------------------------9--9----|
|-2---2--22-2-2-0-2---2--22-2-2-0-7---7---7-7-7-5-7---7-----------|

  *   .   .   .   *   .   .   .   *   .   .   .   *   .   .   .
|-----------------------------------------------------------------|
|-7---------------------------------------------------------------|
|-------7-------------------------5---5--55-----------------------|
|---------5-2---3-5---5--55-2-3-5-----------2-3-5-----------------|


  *   .   .   .   *   .   .   .   *   .   *   .   .   .
|---------------------------------------------------------|
|---------------------------------------------------------|
|-----------------------------------------2--20-2---------|
|-2--20-2---------2--20-2---------------------------------|


Solo
  *   .   .   .   *   .   .   .   *   .   .   .   *   .   .   .
|-----------------------------------------------------------------|
|-----------4-7-----------------------------4-7-------------------|
|-5-------------4---5-7---------4-5-------------4---5-7---------4-|
|-----------------------7---5---------------------------7---5-----|

  *   .   .   .   *   .   .   .   *   .   .   .   *   .   .   .   
|-----------------------------------------------------------------|
|-----------4-7---------------------------------------------------|
|-5-------------4---5-7-2---4-5-0---2-4-----0-2-------------------|
|---------------------------------------3-------0-2-220-2---------|


Verse
  *   .   .   .   *   .   .   .   *   .   .   .   *   .   .   .   
|-------------------------------------------------------------7---|
|-----------------------------7-9-------------7-9-----------9---9-|
|---------------------------9---------------9---------------------|
|-----------------7-----------------------------------------------|

  *   .   .   .     *     .     .      .    *   .   .   .   *   .   .   .
|---------------151514-12-10----1010----------------------------------------|
|-5-------5------------------12-----12-10-8---------------------------------|
|-------------------------------------------9-9-9-9-9-9-9-9-9-9-9-9-9-9-9-9-|
|---------------------------------------------------------------------------|

  *   .   .   .   *   .   .   .   *   .   .   .
|-------------------------------------------------|
|---------------------------------5-4---5-4-------|
|-5-----------3-5-------------3-5-----5-----5-5-5-|
|-----------5---------------5---------------------|

  *   .   .   .   *   .   .   .   *   .   .   .   *   .   
|----------------------------------------35---------------|
|---------5-------5-----3-5-------------5-----------------|
|-------5-------5-----------------3-----------------------|
|-3-------------------------------------------------------|


Chorus
  *   .   .   .   *   .   .   .   *   .   .   .   *   .   .       .
|-----------------------------------------------------------19p17h19\--|
|---------------8-----7-----------6-------------4-5-----4--------------|
|-------------------9-------------------------5-------5----------------|
|-7-----------------------------------------7--------------------------|

  *   .   .   .   *   .   .   .   *   .   .   .   *   .   .   .
|-----------------------------------------------------------------|
|-------------9-8-----7-------------------------------------------|
|-----------9-------9-----------------------------5---5--55--55---|
|-7-------------------------------5---------3-5-----------------5-|

  *   .   .   .   *   .   .   .   *   .   .   .   *   .   .   .
|-----------------------------------------------------------------|
|----------------------------------------------------------9--9-9-|
|---------------------------------------------------------9--9----|
|-2---2--22-2-2-0-2---2---2-2-2-0-7---7---7---7-5-7---7-----------|

  *   .   .   .   *   .   .   .   *   .   .   .   *   .   .   .
|-----------------------------------------------------------------|
|-7---------------------------------------------------------------|
|-------7-------------------------5---5--55-----------------------|
|---------5-----x-5--55--55-2-3-5-----------2-3-5-----------------|

Tr: PD. nov 2003

pages 1