HOME FORUM

Login






Register
Search
List of users


PLEASE NOTE THAT THIS FORUM IS TAKEN FROM PREVIOUS VERSION OF QUEEN SONGS SITE.
Path: Queen Songs - Forum - Tabs & Chords: You're my best friend corrected bass tabBookmark and Share

Forum

--- Only registered users can post a message ---pages 1
Daniel: You're my best friend corrected bass tab28 Sep 2003 04:15
Please post this in the tabs, chords and sheets part



                            Your'e My Best Friend                              


Bass
                                                         
G||-----------------------------------|
D||---------------7-------------------|
A||------------------10--8--7--8--10--|
E||--8--------------------------------|


                                                                       
---------------7--7--8--9---------|------------------------------------|
-------------------------------7--|--10------------------7--10--7------|
---------------------------10-----|------------------10------------10--|
--8-------------------------------|------------------------------------|


                                                                   
-----------------7--8--9---------|--------------------------------|
------------------------------7--|--10----------------7-----------|
--------------------------10-----|-----------------------10-------|
--8------------------------------|-----------------------------8--|


                                                                       
--------------9--7--8--9---------|-------------------------------------|
------------------------------7--|--10------------7------7--10--7------|
--------------------------10-----|-------------------10------------10--|
---------------------------------|-------------------------------------|


                                                                         
---------------9--7--8--9---------|-------------------------------------|
-------------------------------7--|--10------------7------7--10--7------|
---------------------------10-----|-------------------10------------10--|
--8-------------------------------|-------------------------------------|


                                                                   
----------------------------------|-------------------------------|
----------------------10--9----7--|------------------9--10----12--|
---------7------10----------------|-------------------------------|
--8-------------------------------|-------------------------------|


                                                         
--------------------------|--10----------12/-------------|
--------------------------|------------------------------|
--------------------------|------------------------------|
--------------------------|------------------------------|


                                                                   
----------------------------------|-------------------------------|
----------------------10--9----7--|------------------9--10----12--|
---------7------10----------------|-------------------------------|
--8-------------------------------|-------------------------------|


                                                               
----------------------14--------|------------------------------|
------------------12--------15--|------------17------------18--|
--------------------------------|------------------------------|
--------------------------------|------------------------------|


                                                     
--------------14------17------|--16--------16--------|
------------------------------|--------17--------15--|
------------------------------|----------------------|
------------------------------|----------------------|


                                                                 
--------------------------------|--------------------17--13------|
--------------------------------|----------------------------15--|
----------------------------15--|--------------------------------|
------------------13--13--------|--------------------------------|


                                                                           
--------------------|------------------|-----------------------------------|
--------------------|------------------|---------------------7--10--7------|
--15----------------|------------------|-----------------10------------10--|
--------------------|------------------|--8--------------------------------|


                                                             
------------------------------|------------------------------|
----------------6------6------|--7------7------8------8------|
------------------------------|------------------------------|
--8------8--------------------|------------------------------|


                                                         
-------------------------------------|------------------|
---------10/-----15--------15--------|------------------|
--8--------------------15------------|------------------|
---------------------------------13--|------------------|


                                                                             
--12--------12--11--10--9--------9-------|---------------7------------------|
--------12-------------------12-------7--|------9--10-------------10--9--7--|
-----------------------------------------|----------------------------------|
-----------------------------------------|----------------------------------|


                                                                     
--------------------|---------------------------|-------------------|
--------------------|---------------------------|-------------------|
--10----------------|---------------------------|-------------------|
--------------------|------------------------8--|--8----------------|


                                                   
------------------|-------------------------------|
------------------|-------------------7-----------|
------------------|----------------------10-------|
------------------|--8-------------------------8--|


                                                                       
--------------7--7--8--9---------|------------------------------------|
------------------------------9--|--10------------------7--10--7------|
--------------------------10-----|------------------10------------10--|
---------------------------------|------------------------------------|


                                                                   
-----------------7--8--9---------|--------------------------------|
------------------------------9--|--10----------------7-----------|
--------------------------10-----|-----------------------10-------|
--8------------------------------|-----------------------------8--|


                                                                       
--------------9--7--8--9---------|-------------------------------------|
------------------------------7--|--10------------7------7--10--7------|
--------------------------10-----|-------------------10------------10--|
---------------------------------|-------------------------------------|


                                                                         
---------------9--7--8--9---------|-------------------------------------|
-------------------------------7--|--10------------7------7--10--7------|
---------------------------10-----|-------------------10------------10--|
--8-------------------------------|-------------------------------------|


                                                                   
----------------------------------|-------------------------------|
----------------------10--9----7--|------------------8--10----12--|
---------7------10----------------|-------------------------------|
--8-------------------------------|-------------------------------|


                                                         
--------------------------|--10----------12/-------------|
--------------------------|------------------------------|
--------------------------|------------------------------|
--------------------------|------------------------------|


                                                                     
----------------------------------|----------------------7--9----7--|
----------------------10--9----7--|------7--9------10---------------|
---------7------10----------------|---------------------------------|
--8-------------------------------|---------------------------------|


                                                                     
----------11------12----13--14--------|------------12------------13--|
------12--------------------------15--|------------------------------|
--------------------------------------|------------------------------|
--------------------------------------|------------------------------|


                                                   
------------13----14------------|--12--------------|
--------14----------------------|--------------15--|
--------------------------------|------------------|
--------------------------------|------------------|


                                                                 
------------------12--14--------|--------------------17--13------|
--------------------------------|----------------------------15--|
----------------------------15--|--------------------------------|
--------------------------------|--------------------------------|


                                                                     
--------------------|------------------|----------------------------|
--------------------|------------------|----------------------------|
--15----------------|------------------|----------------------------|
--------------------|------------------|--8----------------------8--|


                                                               
------------------------------|-------------------------------|
----------------6------6------|--7------7------8------8----8--|
------------------------------|-------------------------------|
--8------8--------------------|-------------------------------|


                                                                           
---------------------------------|----------13----------------17--15------|
---------10/-----15--------------|--15--------------15----------------18--|
--8------------------------------|------------------------15--------------|
-----------------------13--------|----------------------------------------|


                                         
----------------------------------------|
--17----15------14----------14--12------|
------------------------14----------14--|
----------------------------------------|


                                                                       
---------------------------------------|--------------------------12--|
------------------12--------10--9------|------------------------------|
--12----14--15---------------------12--|--10--------------------------|
---------------------------------------|------------------------------|


                                                 
----------------------------|-------------------|
----------------------------|-------------------|
--10------------------------|-------------------|
----------------------------|--8----------------|


                                                                     
--------7--8--9-------------8---------|--10-------------------------|
---------------------7--10-----10--7--|-----------------------------|
-----------------10-------------------|-----------------------------|
--------------------------------------|--------------------------8--|


                                                   
-------------------------------|-------------------|
-------------------------------|-------------------|
----------------------------7--|--8----------------|
--8------------------8--10-----|-------------------|


                                                                       
--------7--8--9-----------------------|--------------------------------|
---------------------7--10--7---------|-----------------------7----10--|
-----------------10------------10--7--|-------------------10-----------|
--------------------------------------|--8-----------------------------|


                                                             
------17--------------------|--------------------------------|
----------------------------|------------------------7-------|
----------------------------|--------------------10----------|
----------------------------|--8------------8-------------8--|


                                                             
-----------------------------|-------------------------------|
-----------------------------|----------------------9----10--|
-----------------------------|------------------10-----------|
------------------8--7----8--|-------------------------------|


                                                               
-----------------------------|---------------------5--7----9--|
-----------------------------|----------------5---------------|
---------------------2----3--|------3--7----------------------|
------------------3----------|--------------------------------|

1.PD 28 Sep 2003 07:44

Thanks. I will re-transcribe and re-edit it with down-beat markers.
Of course you'll be co-credited.

The delaying updates is mainly my fault. But I try to send Libi the necessary material.

The "Need Your Loving" was one my quickest ever transcribed bass tab (one hour). I have used the
center channel mp3 of Need Your Loving Tonight provided by "Queen Picturehall".

You have three more basstabs:
Ogre Battle, It's Late and King Rat.
Could you run them through and improve them if necessary.
It would be useful to mark at least the bigger sections (Verses, Choruses).

I too started to correct Best Friend. It was tabbed by me in 1998 before I started using
downbeat markers. And of course there are wrong notes to correct.


Queen: You're My Best Friend

1st Verse
  *     .     .      .       *     .     .     .      *     .     .      .       *
|------------------------------------------7-8-9---------------------------------|
|------------------7-10-7---------------------------7-10---------------7-10-7----|
|---------------10--------10---------------------10-----------------10--------10-|
|-8--------------------------8---------------------------------------------------8

  *     .     .     .      *     .     .     .      *     .     .     .      *
|---------------7-8-9---------------------------------------------7-8-9------|
|------------------------7-10--------------7-------------------------------7-10
|---------------------10---------------------10-------------------------10---|
|-8-----------------------------------------------8--------------------------|

  *     .     .      .       *     .     .     .      *     .     .      .       *
|------------------------------------------7-8-9---------------------------------|
|-10----------7----7-10-7---------------------------7-10---------------7-10-7----|
|---------------10--------10---------------------10-----------------10--------10-|
|----------------------------8---------------------------------------------------8


  *     .     .       .     *     .     .     .       *     .     .      .       *
|---------------------------------------------------------------------11-14---10-|
|------------------10-9---7-----------------9-10---12----------------------------|
|-------7-----10-----------------------------------------------------------------|
|-8------------------------------------------------------------------------------|


   *     .      .      .      *     .     .       .      *     .     .     .       *
10-----------12\-------------------------------------------------------------------|
|----------------------------------------------10-9---7------------------9-10---12-|
|-----------------------------------7-----10---------------------------------------|
|-----------------------------8----------------------------------------------------|

   *     .     .      .       *     .      .     .      *     .
|------------------11-14---10-----------12-----------13-------------|
12------------------------------------------------------------------|
|-------------------------------------------------------------------|
|-------------------------------------------------------------------|

  *      .      .       .       *      .     .     .      *     .     .      .       *
|-14-----17-----16------16---------------------------------------------------0-13-10-|
|--------------------17------15------------------------10----------------------------10
|------------------------------------------------8-8---------------------------------|
|------------------------------------------------------------------------------------|


  *     .     .     .     *     .     .     .
|-------------------------------------------------|
|-10----------------------------------------------|
|-------------------------------------------------|
|-------------------------------------------------|



  *     .     .      .       *     .     .     .     *     .     .     .
|----------------------------------------------------------------------------|
|------------------7-10-7----------------6-----6-----7-----7-----8-----8-----|
|---------------10--------10-------------------------------------------------|
|-8--------------------------8-----8-----------------------------------------|


  *     .     .       .     *     .     .     .
|-------5/----10------------------------------------|
|-3----------------10-------------------------------|
|---------------------8---8-------------------------|
|---------------------------------------------------|


  *       .        .     .     *     .       .     .      *
|-12------12-11-10-9-----9--------------------------------|
|------12--------------9-----7-----9-10---12-------10-9-7-|
|---------------------------------------------------------10
|---------------------------------------------------------|

  *     .     .      .       *     .     .     .      *
|-----------------12-12-------------------------------|
|--------------------------------------------------10-|
|-10----------------------10--------------------------|
|-----------------------------------------------------8

  *     .     .     .     *     .     .     .
|-------------------------------------------------|
|-------------------------------------------------|
|-------------------------------------------------|
|-8-----------------------------------------------|

to be continued from 2rd Verse

2.PD 01 Oct 2003 07:33

Queen: You're My Best Friend

  
  *     .     .      .       *     .     .     .      *     .     .      .       *
|------------------------------------------7-8-9---------------------------------|
|------------------7-10-7---------------------------7-10---------------7-10-7----|
|---------------10--------10---------------------10-----------------10--------10-|
|-8--------------------------8---------------------------------------------------8



  *     .     .     .      *     .     .     .      *     .     .     .      *
|---------------7-8-9------------------------------------------(9)7-8-9------|
|------------------------7-10--------------7-------------------------------7-10
|---------------------10---------------------10-------------------------10---|
|-8-----------------------------------------------8--------------------------|

  *     .     .      .       *     .     .     .      *     .     .      .       *
|------------------------------------------7-8-9---------------------------------|
|-10----------7----7-10-7---------------------------7-10---------------7-10-7----|
|---------------10--------10---------------------10-----------------10--------10-|
|----------------------------8---------------------------------------------------8


  *     .     .       .     *     .     .     .       *     .     .      .       *
|---------------------------------------------------------------------11-14---10-|
|------------------10-9---7-----------------9-10---12----------------------------|
|-------7-----10-----------------------------------------------------------------|
|-8------------------------------------------------------------------------------|

   *     .      .      .      *     .     .       .      *     .     .     .       *
10-----------12\-------------------------------------------------------------------|
|----------------------------------------------10-9---7------------------9-10---12-|
|-----------------------------------7-----10---------------------------------------|
|-----------------------------8----------------------------------------------------|

   *     .     .      .       *     .      .     .      *     .
|------------------11-14---10-----------12-----------13-------------|
12------------------------------------------------------------------|
|-------------------------------------------------------------------|
|-------------------------------------------------------------------|

  *      .      .       .       *      .     .     .      *     .     .      .        *
|-14-----17-----16------16--------------------------------------------------12-13-10--|
|--------------------17------15------------------------10----------------------------10
|------------------------------------------------8-8----------------------------------|
|-------------------------------------------------------------------------------------|

  *     .     .     .     *     .     .     .
|-------------------------------------------------|
|-10----------------------------------------------|
|-------------------------------------------------|
|-------------------------------------------------|



  *     .     .      .       *     .     .     .     *     .     .     .
|----------------------------------------------------------------------------|
|------------------7-10-7----------------6-----6-----7-----7-----8-----8-----|
|---------------10--------10-------------------------------------------------|
|-8--------------------------8-----8-----------------------------------------|

  *     .     .       .     *     .     .     .
|-------5/----10------------------------------------|
|-3----------------10-------------------------------|
|---------------------8---8-------------------------|
|---------------------------------------------------|

  *       .        .     .     *     .       .     .      *
|-12------12-11-10-9-----9--------------------------------|
|------12--------------9-----7-----9-10---12-------10-9-7-|
|---------------------------------------------------------10
|---------------------------------------------------------|

  *     .     .      .       *     .     .     .      *
|-----------------12-12-------------------------------|
|--------------------------------------------------10-|
|-10----------------------10--------------------------|
|-----------------------------------------------------8

  *     .     .     .     *     .     .     .
|-------------------------------------------------|
|-------------------------------------------------|
|-------------------------------------------------|
|-8-----------------------------------------------|



2nd Verse
  *     .     .     .      *     .     .     .      *     .     .       .      *
|-------------------10-----------------7-7-8-9---------------------------------|
|-------------------------------------------------7-10---------------7-10-7----|
|----------------------------------------------10-----------------10--------10-|
|-8----------------------8-----------------------------------------------------8

  *     .     .     .      *     .     .     .      *     .     .     .      *
|---------------7-8-9-------------------------------------------9-7-8-9------|
|------------------------7-10--------------7-------------------------------7-10
|---------------------10---------------------10-------------------------10---|
|-8-----------------------------------------------8--------------------------|

  *     .     .      .       *     .     .     .      *     .     .      .      *
|------------------------------------------7-8-9--------------------------------|
|-10---------------7-10-7---------------------------7-10---------------7--------|
|---------------10--------10---------------------10-----------------10---8-8-10-|
|----------------------------8--------------------------------------------------8


  *     .     .       .     *     .     .     .       *     .     .      .       *
|---------------------------------------------------------------------11-14---10-|
|------------------10-9---7-----------------9-10---12----------------------------|
|-------7-----10-----------------------------------------------------------------|
|-8------------------------------------------------------------------------------|

   *     .      .      .      *     .     .       .     *     .     .        .      *
10-----------12\--------------------------------------------------------------------|
|----------------------------------------------10-9---7-------9-----10---12/14---12-|
|-----------------------------------7-----10----------------------------------------|
|-----------------------------8-----------------------------------------------------|

   *     .     .        .      *     .      .     .      *      .     .      .
|--------11----12---13-14---10-----------12-----------13--------13----14-----------|
12-----------------------------------------------------------14--------------------|
|----------------------------------------------------------------------------------|
|----------------------------------------------------------------------------------|

  *       .      *     .     .      .       *     .     .      .        *
|-12----------10-----------------17-14-------------------------17-13----|
|--------------------------------------------------------------------15-|
|----------------------------------------15-----------------------------15
|-----------------------------------------------------------------------|

  *     .     .     .     *     .     .     .
|-------------------------------------------------|
|-------------------------------------------------|
|-15----------------------------------------------|
|-------------------------------------------------|


                             solo
  *     .     .      .       *     .     .     .      *     .     .     .
|-----------------------------------------------------------------------------|
|----------------------------------------6-----6------7-----7-----8-----8-----|
|-----------------------------------------------------------------------------|
|-8--------------------------8-----8------------------------------------------|

  *     .     .      .     *     .     .     .
|-------5/----10-----------------------------------|
|-3------------------------------------------------|
|------------------8-8---8-------------------------|
|--------------------------------------------------|

  *       .      .     .     *     .       .     .       *
|-12---11-10---9-------9-7-------------------------------|
|--------------------9-----9-7---9-10---12-------10-9----|
|-----------------------------------------------------12-10
|--------------------------------------------------------|

  *     .     .     .     *     .     .     .      *
|--------------------------------------------------|
|-----------------------------------------------10-|
|-10----------------------10-----------------------|
|--------------------------------------------------8

  *     .     .     .      *     .     .       .     *     .     .     .      *
|--------------------------------7-8-9---------7-8-9-10-----------------------|
|-----------------------10----------------7-10----------------------------(10)|
|--------------------------------------10-------------------------------------|
|-8-----8-----8-----8------8--------------------------------------------------8

  *     .     .     .     *     .     .     .     *     .     .       .      *
|-------------------------------------------------------7-8-9----------------|
|----------------------------------------------------------------7-10-7------|
|---------------------5-7-8-----------------------------------10--------10-7-|
|-8-----------8-----8-----------------------------8--------------------------8

  *     .     .      .      *     .     .     .
|---------------------------------------------------|
|--------------------7---10-------------------------|
|-----------------10--------------------------------|
|-8-------------------------------------------------|

  *     .     .      .     *     .     .     .     *     .     .      .      *
|----------------------------------------------------------------------------|
|--------------------7------------------------------------------------9---10-|
|-----------------10-----------------------------------------------10--------|
|-8----------------------8-------------------7---8---------------------------|

   *     .     .      .     *     .     .     .       *     .     .     .
|-----------------------------------------------------------------------------|
10--------------------------------------------12---14-------------------------|
|------------------10-------------------10------------------------------------|
|---------------------7---8------/12------------------------------------------|


Tr: PD. 1998, 2003, 
additional help: Daniel

This new version is not really a correction of the first, it was completly re-tabbed.
I have made a comparison between the 1998 and 2003 version.

Not incuding the fretting there were ca. 40 different details between the two basstabs.
mostly missing notes, wrong notes and wrong octaves.
The check result: three times out of the ca. 40, the old tab was right.

In 1998 (having been transcribing for four years back then) I would not have thought that I so many mistakes did including some pretty big (easy to detect) ones...

pages 1