HOME FORUM

Login






Register
Search
List of users


PLEASE NOTE THAT THIS FORUM IS TAKEN FROM PREVIOUS VERSION OF QUEEN SONGS SITE.
Path: Queen Songs - Forum - Tabs & Chords: Rain must fall soloBookmark and Share

Forum

--- Only registered users can post a message ---pages 1
[Deacon]: Rain must fall solo13 Jul 2006 11:33

                                      Rain must fall  


|--------------------------------------------------------------------------------------------|
|--------10-----12----10~------------10-----12-13-15-17__r15---13-15-17r15------13-15-17r15--|
|--12-9-----9------9-----------12-9-----9------------------------------------14--------------|
|--------------------------------------------------------------------------------------------|
|--------------------------------------------------------------------------------------------|
|--------------------------------------------------------------------------------------------|

|-----15~--15b17r15--------15-13-12-----------------------------------------------------|
|--13---------------13~-------------15-13---------10----12-13-15--20r18----13-15-17r15--|
|------------------------------------------12-9------9----------------------------------|
|---------------------------------------------------------------------------------------|
|---------------------------------------------------------------------------------------|
|---------------------------------------------------------------------------------------|

|------------------15b17__t18p17r15--|
|--13-15-17r15--13-------------------|
|------------------------------------|
|------------------------------------|
|------------------------------------|
|------------------------------------|

[Henrik]
1.Peelmaster 09 Aug 2006 13:53
That's superb!

I finally have discovered the place to find out how to play every Queen song!

Cheers Henrik. Love that solo.
pages 1