HOME FORUM

Login






Register
Search
List of users


PLEASE NOTE THAT THIS FORUM IS TAKEN FROM PREVIOUS VERSION OF QUEEN SONGS SITE.
Path: Queen Songs - Forum - Tabs & Chords: Star Fleet intro TABBookmark and Share

Forum

--- Only registered users can post a message ---pages 1
Henke: Star Fleet intro TAB15 May 2006 12:58
                                       
                                           Star Fleet intro

 [Solo guitar]
|-----------------------------------------------------------------------------------------------------|
|-----------------------------------------------------------------------------------------------------|
|--8----8-6-5-6-8--------6-6-6-6---6-8b10-10-10r8-6---8-6-8--------------------------------6-8b10-----|
|-----------------6--6/8------------------------------------6---4-6--4h6p4\3--4--4/6--6/8-------------|
|-----------------------------------------------------------------------------------------------------|
|-----------------------------------------------------------------------------------------------------|

|------------------------------------------------------------------------------------------------------|
|-----------------------9b11--11r9-7\6-7p6----------------14--13-14-14--13-14--13h14p13p11-------------|
|--10r8-6--6-5-6-6-------------------------8p6-8p6-----------------------------------------13---13/15--|
|---------------------------------------------------8--------------------------------------------------|
|------------------------------------------------------------------------------------------------------|
|------------------------------------------------------------------------------------------------------|

|-------------------------------------------------------------------------------------|
|--13-14-16-16b18--18r16--------------------------------------------------------------|
|------------------------13---15r13--11\10-11p10--------------------------------------|
|------------------------------------------------13-11-10-11-13-----------------------|
|---------------------------------------------------------------11-----9p8-9p8-9p8----|
|----------------------------------------------------------------------------------9--|


[Henrik]

pages 1