HOME FORUM

Login






Register
Search
List of users


PLEASE NOTE THAT THIS FORUM IS TAKEN FROM PREVIOUS VERSION OF QUEEN SONGS SITE.
Path: Queen Songs - Forum - Tabs & Chords: My life has been saved soloTABBookmark and Share

Forum

--- Only registered users can post a message ---pages 1
HenrikBjorklund: My life has been saved soloTAB21 Dec 2005 11:56

My Life Has Been Saved

Some licks
                   
|-------------------------------------------|
|--7---8-5-----5--5h7p5------------7---8-5--|
|-------------------------7-6-7~------------|
|-------------------------------------------|
|-------------------------------------------|
|-------------------------------------------|


   
|--2----2-0---------|
|-----------3-2-----|
|---------------4~--|
|-------------------|
|-------------------|
|-------------------|
 


 First solo
|-------------------------------------------------|
|-------------------------------------------------|
|----------5----------12--------12--12----12-14---|
|----------------/14------14----------------------|
|-------------------------------------------------|
|-------------------------------------------------|

|-----------------------------------------------------|
|--11---11-----/15--13h15p13-11----11\10--------------|
|----------------------------------------10-----------|
|-------------------------------------------------10--|
|---------------------------------------------12------|
|-----------------------------------------------------|
 
|---------------------------------------------10-12-|
|---------------------------------------------------|
|-------------9-10p9------------------12~-----------|
|--12------12---------12-10---10\9------------------|
|---------------------------------------------------|
|---------------------------------------------------|

|--13-15b---15r--13\12----------------------------------|
|----------------------13-----------------13-15pbr--13--|
|-------------------------12-----------12---------------|
|----------------------------14~----14------------------|
|-------------------------------------------------------|
|-------------------------------------------------------|
       
|--------------------12-------------|
|-----------12-13-15----15--15b-15--|
|--14----14-------------------------|
|-----------------------------------|
|-----------------------------------|
|-----------------------------------|
             

|--------------------|
|--13b--13--15--15b--|
|--------------------|
|--------------------|
|--------------------|
|--------------------|



 Another of those licks
|---------------------------------|
|---------------------------------|
|----9b--9pbr--7-9p7--------------|
|--------------------9p7-9p7------|
|----------------------------9p7--|
|---------------------------------|



 Outro solo              
|-----------------------------------|
|-----------------------------------|
|--------------------12--------12~--|
|---------------/14------14---------|
|-----------------------------------|
|-----------------------------------|

|-------------------------------------13-12--------|
|--13------/17------15h17p15-13-------------15p13--|
|-------------------------------14~----------------|
|--------------------------------------------------|
|--------------------------------------------------|
|--------------------------------------------------|
               
|--------------------------------|
|--15b--15~----13b-13~---15-17~--|
|--------------------------------|
|--------------------------------|
|--------------------------------|
|--------------------------------|
pages 1