HOME FORUM

Login






Register
Search
List of users


PLEASE NOTE THAT THIS FORUM IS TAKEN FROM PREVIOUS VERSION OF QUEEN SONGS SITE.
Path: Queen Songs - Forum - Tabs & Chords: Wishing Well ROTC TABBookmark and Share

Forum

--- Only registered users can post a message ---pages 1
HenrikBjorklund: Wishing Well ROTC TAB19 Nov 2005 12:25

                 Wishing Well
        Return of the Champions Version
 
 Intro Riff                    
|----------------------------------3--|
|----------------------------------3--|
|----------------------------------0--|
|--2-0--------------------2-0------0--|
|------2-0---2-0--------------2-0--2--|
|----------------3-0...------------3--|

 Verse 1
|--0-----------------------------------------------------------------|
|--0-----------------------------------------------------------------|
|--1-------------------5------7---9--------------------5------7---9--|
|--2----2-2-2...-----5------7-----9----2-2-2...------5------7-----9--|
|--2----2-2-2...---3------5-------7----2-2-2...----3------5-------7--|
|--0----0-0-0...------------------0----0-0-0...-------------------0--|

|------------------------------------------------------------------------3--|
|------------------------------------------------------------------------3--|
|--5--7--9----5--7--1-----5--7--9----3--7--------------------------------0--|
|--5--7--9----5--7--2-----5--7--9----3--7---2-0-----------------2-0------0--|
|--3--5--7----3--5--2-----3--5--7----5--5-------2-0---2-0-----------2-0--2--|
|--------0----------0-------------------------------------3-0------------3--|

 Verse 2 with alternate ending

|----------------------|
|----------------------|
|---------------12b14--|
|--...2-0--------------|
|---------2-0----------|
|----------------------|
 
 F         G        A
Love in a peaceful world...
 

F  G  A 4times

C  D  F G A
 

Verse 3

F  G  A 4times

|--------------------------------------------|
|-----------------------------------------2--|
|-----------------------------------5-----2--|
|--7-5--------------------7-5-------5-----2--|
|------7-5---7-5-3------------7-5---3-----0--|
|------------------5...----------------------|

Henrik
1.Daniel 14 Dec 2005 04:49
Cool , keep tabbin' ROTC  !!!

I wonder,  where is this song from,  it must be of Paul's carrer but i really dont know much about him,  this song is ok,  there are lots of songs of this album that aren't in the Queen cataloge so must they must be of one of his bands
2.HenrikBjorklund 14 Dec 2005 16:30
Yes this is one of Pauls songs when he sang with Free. Its a classic! I think its a Great song.
pages 1