HOME FORUM

Login






Register
Search
List of users


PLEASE NOTE THAT THIS FORUM IS TAKEN FROM PREVIOUS VERSION OF QUEEN SONGS SITE.
Path: Queen Songs - Forum - Tabs & Chords: Hammer to fall (slow version) TABBookmark and Share

Forum

--- Only registered users can post a message ---pages 1
HenrikBjorklund: Hammer to fall (slow version) TAB13 Nov 2005 16:28

  Hammer To Fall (slow version)
 
  Sheffield 2005

 
 First solo  (not completely accurate)
|----------------------------------------------|
|----------------------------------------------|
|------------2~--pbr4p2-4~-----2~----6-7-9-----|
|-----2~-2h4---------------2h4-------------7~--|  
|-2/4------------------------------------------|
|----------------------------------------------|

|--------------------------------------------------------------------|
|--------------------------------------------------------------------|
|--------------------------------------------------------------------|
|--6--------------------7~-----7~---pbr9p7-9~------7h9p7~--feedback--|
|----9-7---5p4h5~---5/7----5/7-----------------7h9-------------------|
|--------------------------------------------------------------------|


 Second Solo (not completely accurate)
|-----------------------------------------------------------------------------|
|-----------------------------------------------------------------------------|
|--------------------7br-5h7p5-5-5\4------------------------------------------|
|---------5-7-5h7p5------------------7~--7-5h7p5\3-5-3h5p3\2-3-2h3p2-2-3/5----|
|--3~-5/7-----------------------------------------------------------------3~--|
|-----------------------------------------------------------------------------|

|------------------------------------------------8-5h8p5---5------------------|
|-----------------------------8b10-5-8p5-8b10-5----------8---8-5h8p5---5------|
|------------------------7b9-----------------------------------------7---7b9--|
|--------5-7-5h7p5---5-7------------------------------------------------------|
|--3-5/7-----------7----------------------------------------------------------|
|-----------------------------------------------------------------------------|

Henrik

pages 1