HOME FORUM

Login






Register
Search
List of users


PLEASE NOTE THAT THIS FORUM IS TAKEN FROM PREVIOUS VERSION OF QUEEN SONGS SITE.
Path: Queen Songs - Forum - Tabs & Chords: Tabs and chords to update vol.2Bookmark and Share

Forum

--- Only registered users can post a message ---pages [1] 2
PD: Tabs and chords to update vol.212 Oct 2005 19:05
White Man - tab second vesrion
Battle Theme - tab
Dont Stop Me Now - fingerstyle tab
Hammer To Fall - slow version TAB
She Blows Hot & Cold - chords
Stop All The Fighting - chords
We Will Rock You - chords
Scandal - chords
Rain Must Fall - chords
My Baby Does Me - chords
Put Out The Fire - chords
Tear It Up - chords
Was It All Worth It - chords
Action This Day - chords
Man On The Prowl - chords
Hang On In There - chords
Love Is The Hero - chords
I Was Born To Love You - chords
She Blows Hot & Cold - chords
Stop All The Fighting - chords
We Will Rock You - chords
Dont Try Suicide - chords
A Winter's Tale - chords
Last Horizon - ROTC version - chords
Wishing Well - ROTC - chords
My life has been saved solo - tab - second version
New York - chords
I Can?t Live With You -chords
God Is Heavy - chords
Money Cant Buy Happiness - chords
Love Makin Love - chords
Gazelle - chords
It's So You - chords
Lady With Tenor Sax - chords
Have A Nice Day - chords
Time - chords
Love Me Like There's No Tomorrow demo - chords
Robbery - chords
One Vision - chords
A New Life Is Born - chords
My Baby Loves Me (Demo) - chords
Who Wants To Live Forever - chords
Seven Seas Of Rhye - chords
The Invisible Man - chords
Is This The World We Created? - chords
Let Me Entertain You - chords
You Dont Fool Me - chords
Lost Opportunity - chords
Last Horizonts ROTC - chords
The Fairy Feller Master Stroke - Chords
Hammer To Fall (slow) - tab
Star Fleet - tab
Mother Love - chords
Staying Power - chords
Holding On (Demo) - chords
Delilah - chords
It?s In Everyone Of Us - chords

I think these two chords will be left out:
Another One Bites The Dust
Under Pressure

because there are already reliable chord trascriptions for these in the archive.

61.PD 19 Jul 2006 16:02

Holding On (Demo)
Words and music by Freddie Mercury


Am
   Yeah yeah yeah
Am/D
     Ha
Dm
   Keep doin' it
  G
Ha
Bdim (F B D)
Yeah yeah


  Am7                Am
When I was a little boy and growin' up
   Am/D
Ha
 
I didn't know myself what's left from right and what's on top


    Dm
Said   holding on
                       G
They said, keep, keep holding
 Bdim
Holding holding on


My mama told me this
She said, don't grow up too quickly
She said ba bap ba da bap ba
She said hold on, keep on
Holding on, yeah yeah yeah yeah
Mama told me
That's what she said
Keep holding babe
Holding, holding


D             C/D
Holding on, this time holding on
D    
She said to me, she said to me
      C7/Bb
Keep holding on
     F/A    Ab7
I'm holding,   I said enough keep holding
C/G      E/G#
Oooh ooohooo
 Am                                          Am/D
Ba da bap da bap da ba ba ba ba ba dap yeah yeah

Yeah oh
 Dm                   G               Bdim
Holding, I said keep holding, holding

My big brother told me
He said, I don't need you as a brother man
I wanna keep holding on
That's what he said
I just keep holding, holding
Eeey ba ba ba ba ba ba bop ba ba ba bap de bop
Ba ba ba ba ba bop mmm ba ba ba ba bop ha
You do that


One more time
I keep holding on yeah
I just keep holding, holding on
Holding on, DJ


Yeah holding on, holding on
I just keep holding on, holding on
Ah my mama told me that
I gotta keep holding on yeah
Yeah hey hey hey wooohoooo ha (ha ha)


Now it's your turn babe
Go (go go)
Ba ba ba ba ba ba ba ba ba ba huh huh huh
Mmm ba ba ba ba ba bop mmm ba ba ba ba ba bop
Yeah (hey)
Hang on, one
Oh

Holding On (Demo)
Words and music by Freddie Mercury


Am
   Yeah yeah yeah
Am/D
     Ha
Dm
   Keep doin' it
  G
Ha
Bdim (F B D)
Yeah yeah


  Am7                Am
When I was a little boy and growin' up
   Am/D
Ha
 
I didn't know myself what's left from right and what's on top


    Dm
Said   holding on
                       G
They said, keep, keep holding
 Bdim
Holding holding on


My mama told me this
She said, don't grow up too quickly
She said ba bap ba da bap ba
She said hold on, keep on
Holding on, yeah yeah yeah yeah
Mama told me
That's what she said
Keep holding babe
Holding, holding


D             C/D
Holding on, this time holding on
D    
She said to me, she said to me
      C7/Bb
Keep holding on
     F/A    Ab7
I'm holding,   I said enough keep holding
C/G      E/G#
Oooh ooohooo
 Am                                          Am/D
Ba da bap da bap da ba ba ba ba ba dap yeah yeah

Yeah oh
 Dm                   G               Bdim
Holding, I said keep holding, holding

My big brother told me
He said, I don't need you as a brother man
I wanna keep holding on
That's what he said
I just keep holding, holding
Eeey ba ba ba ba ba ba bop ba ba ba bap de bop
Ba ba ba ba ba bop mmm ba ba ba ba bop ha
You do that


One more time
I keep holding on yeah
I just keep holding, holding on
Holding on, DJ


Yeah holding on, holding on
I just keep holding on, holding on
Ah my mama told me that
I gotta keep holding on yeah
Yeah hey hey hey wooohoooo ha (ha ha)


Now it's your turn babe
Go (go go)
Ba ba ba ba ba ba ba ba ba ba huh huh huh
Mmm ba ba ba ba ba bop mmm ba ba ba ba ba bop
Yeah (hey)
Hang on, one
Oh

Transcribed by Michael C.
62.PD 19 Jul 2006 16:04

It's In Everyone Of Us (Freddie with Cliff Richard)
Words and music by David Pomeranz


 
        G   C/G G          C  G/B Am7
It's in every   one of us to be  wise
 Am   G    D7             G    C/G G
Find your heart, open up both your eyes
       C     D/F# G   Gsus4 G         C G/B  Am G    F  D7
We can all know   everything  without ever knowing why
        G   C/G G  
It's in every   one of us
   D    G  D7
By and by


It's in every one of us to be wise
Find your heart, open up both your eyes
We can all know everything without ever knowing why
It's in every one of us
 G D    Bm C
By and by  
        G   C/G G  
It's in every   one of us
   D    C G/B Am G
By and by


It's in every one of us
I just remembered
It's like I've been sleeping for years
I'm not awake as I can be
But my seeing's better
I can see through the tears


I've been realising that
I bought this ticket
And watching only half the show
But there is scenery and lights
And a cast of thousands
Who all know what I know
And it's good
That it's so


It's in every one of us to be wise
Find your heart, open up both your eyes
We can all know everything without ever knowing why
It's in every one of us
By and by


It's in every one of us
By and by

Transcribed by Michael C.
63.PD 19 Jul 2006 16:05

Delilah
Words and music by Queen (Freddie)


   G       Am   E/G# E7/B Am
Delilah Delilah
D               C  G/B        Am
Oh my oh my oh my you're irresistible
 G                                         Am
You make me smile when I'm just about to cry
                                             D
You bring me hope you make me laugh - and I like it
 C
You get away with murder so innocent
G/B                                                  Am
But when you throw a moody you're all claws and you bite
                 Am7  Am  D/A
That's all right


   G       Am   E/G# E7/B Am
Delilah Delilah
D               C  G/B         Am
Oh my oh my oh my you're unpredictable
G            D/G     C/G  D/G
You make me so very happy
          G             D/G    C/G    D/G
When you cuddle up and go to sleep beside me
G             D/G              C/G D/G
And then you make me slightly mad
          G      D/G    C/G               D/G  Am  G
When you pee all over my   Chippendale suite
        D/F# F
Delilah        Delilah

Oh oh oh oh oh oh oh


C
You take over my house and home
G/B
You even try to answer my telephone
   Am              
Delilah you're the apple of my eye


   G        Am
Meeow meeow   meeow
   Bm7                Am/C                
Delilah I love you Delilah
G   D/G         C/G     D/G
Oh you make me so very happy
G         D/G          C/G          D/G        G
You give me kisses and I go out of my mind ooh
   D/G         C/G
Meeow meeow meeow
       D/G               G               D/G  C/G
You're irresistible - I love you Delilah
   D/G     G       D/G  C/G  G
Delilah I love you
Hah hah
You make me very happy
Oh yeah - I love your kisses
I love your kisses
I love your kisses
I love your kisses
I love your your your kisses
I love your kisses


Transcribed by Michael C.

64.PD 19 Jul 2006 16:08

                                           Star Fleet intro

 [Solo guitar]
|-----------------------------------------------------------------------------------------------------|
|-----------------------------------------------------------------------------------------------------|
|--8----8-6-5-6-8--------6-6-6-6---6-8b10-10-10r8-6---8-6-8--------------------------------6-8b10-----|
|-----------------6--6/8------------------------------------6---4-6--4h6p4\3--4--4/6--6/8-------------|
|-----------------------------------------------------------------------------------------------------|
|-----------------------------------------------------------------------------------------------------|

|------------------------------------------------------------------------------------------------------|
|-----------------------9b11--11r9-7\6-7p6----------------14--13-14-14--13-14--13h14p13p11-------------|
|--10r8-6--6-5-6-6-------------------------8p6-8p6-----------------------------------------13---13/15--|
|---------------------------------------------------8--------------------------------------------------|
|------------------------------------------------------------------------------------------------------|
|------------------------------------------------------------------------------------------------------|

|-------------------------------------------------------------------------------------|
|--13-14-16-16b18--18r16--------------------------------------------------------------|
|------------------------13---15r13--11\10-11p10--------------------------------------|
|------------------------------------------------13-11-10-11-13-----------------------|
|---------------------------------------------------------------11-----9p8-9p8-9p8----|
|----------------------------------------------------------------------------------9--|


[Henrik]
65.PD 19 Jul 2006 16:09

                                  Rain must fall  


|--------------------------------------------------------------------------------------------|
|--------10-----12----10~------------10-----12-13-15-17__r15---13-15-17r15------13-15-17r15--|
|--12-9-----9------9-----------12-9-----9------------------------------------14--------------|
|--------------------------------------------------------------------------------------------|
|--------------------------------------------------------------------------------------------|
|--------------------------------------------------------------------------------------------|

|-----15~--15b17r15--------15-13-12-----------------------------------------------------|
|--13---------------13~-------------15-13---------10----12-13-15--20r18----13-15-17r15--|
|------------------------------------------12-9------9----------------------------------|
|---------------------------------------------------------------------------------------|
|---------------------------------------------------------------------------------------|
|---------------------------------------------------------------------------------------|

|------------------15b17__t18p17r15--|
|--13-15-17r15--13-------------------|
|------------------------------------|
|------------------------------------|
|------------------------------------|
|------------------------------------|

[Henrik]
pages [1] 2