HOME FORUM

Login






Register
Search
List of users


PLEASE NOTE THAT THIS FORUM IS TAKEN FROM PREVIOUS VERSION OF QUEEN SONGS SITE.
Path: Queen Songs - Forum - Tabs & Chords: Hammer Slow Version Tab?Bookmark and Share

Forum

--- Only registered users can post a message ---pages 1
RSClassic: Hammer Slow Version Tab?26 Jul 2005 18:45
Hello all....first post here!

Anyone have a tab of such for the slow version of Hammer to Fall that Brian has been playing lately?
1.woody 26 Jul 2005 20:18
Hello there!!
2.macca 27 Oct 2005 20:02
Its exactly the same as the fast one but, obviously slower! If you dont know the fast version:


-------------------------------------4----5
--2----3----2----3----2----3----2----5----5
--2----2----2----2----2----2----2----4----6
--2----4----2----4----2----4----2----6----7
--0----0----0----0----0----0----0----------
-------------------------------------------
3.macca 27 Oct 2005 20:11
And then, take "TILL one DAY they Call your Name" (caps indicate lyric on which the note is played)


--5----4----2-----
--5----5----3----2
--6----4----2----2
--7----6----4----2
------------0----0
------------------


After this it goes back to the main riff. Use this tab also on

"YOU dont WASTE no TIME at ALL"
 maybe  "LIFT your FACE the WESTERN WAY"
"TOE your LINE and PLAY their GAME"
pages 1