HOME FORUM

Login






Register
Search
List of users


PLEASE NOTE THAT THIS FORUM IS TAKEN FROM PREVIOUS VERSION OF QUEEN SONGS SITE.
Path: Queen Songs - Forum - Tabs & Chords: I cant live with you TABBookmark and Share

Forum

--- Only registered users can post a message ---pages 1
HenrikBjorklund: I cant live with you TAB24 Jul 2005 19:00

Riff 1
E-------------------|
B--9-9--9--9--9\----|
G--9-9--9--9--9\----|
D--9-9--9--9--9\----|
A--7-7--7--7--7\----|
E-------------------|

Riff 2 verse
E---------------------------------|
B---------------------------------|
G---------------------------------|
D----1/3/4----2/3/4----2/3/4------|
A----2/3/4----2/3/4----2/3/4------|
E----0/1/2----0/1/2----0/1/2------|

Riff 3
E-----------------------------|
B-----------------------------|
G-----------------------------|
D-----------------------------|
A---1-/2-/3-/4---7p4----------|
E---------------------4-------|

Riff 4
E----------------------------------|
B-5--------------------------------|
G-6--------------------------------|
D-7-------5/6/7--------5/6/7-------|
A-7-------5/6/7--------5/6/7-------|
E-5-------3/4/5--------3/4/5-------|

Riff 5
E-----------------------------|
B-----------------------------|
G-----------------------------|
D-----------------------------|
A--/4-/5-/6-/7---10p7---------|
E-----------------------------|


[INTRO]
Riff 1  (2x)

[CHORUS]
Riff 1    A     B
Riff 1    A     B
D    A
Riff 1  (2x)

[VERSE 1]
Riff 2  
Riff 3
Riff 4
Riff 5


[PRE-CHORUS]
 C - G  C - G  C - G  D    (2x)
Love is say-ing...
C - G  C  -  G  C - G  D - A  D - A  D - A
Lo-ver  turns...

(Riff 1 1x at the end

[VERSE 2]

[PRE-CHORUS]
C - G  C - G  C - G  D       (2x)
Hold on...
 C - G   C  -  G  C - G  D - A  D - A  D – A - B
Passions screaming...                          do...

[BRIDGE]
E    A    
Am   G
B    A    F#m7   B

E------------------------------------------------------|
B--------------12--10p9--------------------------------|
G-----9~~~---------------9-----------------------------|
D--------------------------9----11~~9--7--6------------|
A---------------------------------------------9--------|
E------------------------------------------------------|
   
E-------------------------------------------------------|
B-------------------------------------------------------|
G----------------11b13r11p9-----9-13b14r13--11----------|
D------------9---------------11-------------------------|
A---7---9h11--------------------------------------------|
E-------------------------------------------------------|

E-------------------------------------------------------|
B----------------------------------------/12------------|
G---9----9------14~~-12p11h12~~-11p9h11-----------------|
D----------9--------------------------------------------|
A-------------------------------------------------------|
E-------------------------------------------------------|

[CHORUS]

two guitars arranged for one

     D                 A
E---------------------/9---/10--/11--/12--15b16----|
B---/7--/9--/10--/12--/10--/12--/13--/14--16b17----|
G---/7--/9--/11--/13-------------------------------|
D--------------------------------------------------|
A--------------------------------------------------|
E--------------------------------------------------|

[CHORUS] at 2:50

[OUTRO] Riff 1  A   B  then fade out
pages 1