HOME FORUM

Login






Register
Search
List of users


PLEASE NOTE THAT THIS FORUM IS TAKEN FROM PREVIOUS VERSION OF QUEEN SONGS SITE.
Path: Queen Songs - Forum - Tabs & Chords: That riff from Jealousy!Bookmark and Share

Forum

--- Only registered users can post a message ---pages 1
woody: That riff from Jealousy!04 May 2005 23:43
Off the top of my head: (not sure about the string as the vibrato effect is possible on both)


  *   .   .   .   *   .   .   .   *   .   .   .
|-----------------------------------------------|
|-----------------------------------------------|
|-----------------------------------------------|
|-8v--78/-12--78--5v--78/-14--78--5v--78/-15----|
|-----------------------------------------------|
|-----------------------------------------------|

Woody
1.woody 11 May 2005 23:55

Intro Piano:

  *   .   .   .   *   .   .   .   *   .   .   .   *   .   .   .   *   .   .   .    
|-6---3-6-5-----5-3---3-5-3-8-----------------------------0---------------1-----|
|---3-----6---6---6---6---5--8------------3-------------------------------------|
|-----------5-------5---------9---3---23----------0---23----------0---23--0-----|
|-5----------------------------10-------------78--------------78----------------|
|-----------------3-----------------------------------01------------------------|
|-3-------------------------------3(3)---------6-53------------6653-------------|
  *   .  
|-------3-| (ever so slightly off-beat)
|-5-6-5---|
|---------|
|---------|
|---------|
|---------|

Woody
(hitting the wall of sound)
2.Kubis 09 Jun 2005 08:57
Thank you very much.
pages 1