HOME FORUM

Login






Register
Search
List of users


PLEASE NOTE THAT THIS FORUM IS TAKEN FROM PREVIOUS VERSION OF QUEEN SONGS SITE.
Path: Queen Songs - Forum - Tabs & Chords: Some Stufff from One VisionBookmark and Share

Forum

--- Only registered users can post a message ---pages 1
woody: Some Stufff from One Vision01 May 2005 14:42

I tossed this up last night:

Solo 1:15
  *       *               *         *                                      *
|-------------13b15-15r13v------------------------------------------------------|
|-13b15___-\/-------------b15-15r13---------------------------------------------|
|----------\/-----------------------12b13-13-13r12---14p12-12--12p10-12p10------|
|----------\/--------------------------------------------------------------12v\-|
|----------\/-------------------------------------------------------------------|
|----------\/-------------------------------------------------------------------|

|-b17r15p13------|
|----------13vvv-|
|----------------|
|----------------|
|----------------|
|----------------|

Solo 2:04 (not very audible)
          !
|-----------------------------|
|-6-5-3-----------------------|
|-------5-3-2...--------------|
|-----------------2-4b5-2v...-|
|-----------------------------|
|-----------------------------|

Solo 3:12 
(or play with artificial harmonics)

|-21b22vvv-24b25rp22--24b25vv-...
|-----------------------------...
|-----------------------------...
|---------\-------------------...
|---------\-------------------...
|---------\-------------------...

...----------------------------------------------------------------------------|
...-t13p12t13p10t13p9t13p8-----------------------------------------------------|
...-----------------------t12p10t12p9t12p7-------------------------------------|
...---------------------------------------t12p10t12p8--------------------------|
...--------------------------------------------------t12p10t10p8t8p7v\---------|
...--------------------------------------------------------------------5tr0tr5-|

Solo 3:55

|-22vvv\-
|--------
|--------
|--------
|--------
|--------...


still kinda working on it...

pages 1