HOME FORUM

Login






Register
Search
List of users


PLEASE NOTE THAT THIS FORUM IS TAKEN FROM PREVIOUS VERSION OF QUEEN SONGS SITE.
Path: Queen Songs - Forum - Tabs & Chords: White Queen TabBookmark and Share

Forum

--- Only registered users can post a message ---pages 1
woody: White Queen Tab25 Apr 2005 18:54

Intro

  G       G  D    D  Em   Em D
|-19----|-19\17-|-17\15-|-15\14--|
|-15----|-15----|-15\12-|-12\10--|
|-12----|-12\11-|-11\9--|--9\7---|
|-------|-------|-------|--------|
|-------|-------|-------|--------|
|-------|-left--|-right-|-left---|

                           Chorus shaped Intro

                           G D     D Em    G D     D Em    G D     D Em    G D      
  Free                     * . . . * . . . * . . . * . . . * . . . * . . . * . . .
|-------------0------2---|-3-2-----2-----------------0---------------0-------2----|
|---------3---------3----|-3-3-----3-------0-3-----3-0---------------0-----0-3----|
|-------0----------2-----|---------2-------0-2-----2-0-------------2-0-----0-2----|
|-----0-----------0------|-0-0-----0-2-----0-0-----0-------5\0-----2-2-----0------|
|-0h2--------------------|-----------2---------------------5\0-----2-2-----2------|
|------------------------|-----------0---------------------3----------------------|

Verse 1

  Am              Am/G            Fmaj7           F7      E  
  *   .   .   .   *   .   .   .   *   .   .   .   *   .   .   .  
|-----------------------------------------------------------------|----|
|-----1---0-----------1---0-------------------------1-------------|----|
|-------------2---------------2-------2---2---2-------4-------2---|-0/-|
|---2---2---2---2---2---2---2---2---2---0-------1-------2---2---2-|-/0-|
|-0-----------------------------------------3---------------------|----|
|-----------------3---------------1---------------1-------0-------| 2X |

Bridge 1

  Am      G       C   G   Am      Am      D       Am      D       A
  * . . . * . . . * . . . * . . . * . . . * . . . * . . . * . . . * . . .
|-----------------0-------------5-----5-----------------------------------|
|-------------0---1---3-------5-----5---5-----3-------1-------3-----------|
|-----2-----------0---0-----5---------------2---2-----------2---2-----2---|
|---2---2---0---0-2---0---7---------------0---------2---2-0---------2---2-|
|-0---------------3---2-----------7---------------0---------------0-------|
|---------3---------------------------------------------------------------|

Chorus
                          "               "                  " = Esus4
  G D     D Em    G D     E Em    G D     E Em    G D    
  * . . . * . . . * . . . * . . . * . . . * . . . * . . .
|-3-2-----2-0-----3-2-----0-0-----3-2-----0-0-----3-2----|
|-3-3-----3-0-----3-3-----0-0-----3-3-----0-0-----3-3----|
|-4-2-----2-0-----4-2-----2-0-----4-2-----2-0-----4-2----|
|-5-0-----0-2-----5-0-----2-2-----5-0-----4-2-----5-0----|
|-----------------------------------------0-2------------|
|-----------------------------------------0-0------------|

Verse 2

  Am              Am/G            Fmaj7           F7      E  
  *   .   .   .   *   .   .   .   *   .   .   .   *   .   .   .
|-----------------------------------------------------------------|----|
|-----1---0-----------1---0---------------0---------1-------------|----|
|-------------2---------------2-------2-------2-------4-------2---|-0/-|
|---2---2---2---2---2---2---2---2---2---0-------1-------2---2---2-|-/0-|
|-0-----------------------------------------3---------------------|----|
|-----------------3---------------1---------------1-------0-------| 2X |

Bridge 2

  Am    Dm/E  A7  Dm      F7      Bb F/A  Gm Dm Esus4 E  
  * . . . * . . . * . . . * . . . * . . . * . . . * . . .  
|-------------0-------1-------1-------------------0---0---|
|---------3---2---------------------3-----3-------0---0---|
|-2---2---2-----2---2---2---2---2-------2---3---2-2v--1---|
|---2---2---2-----0-------1-----------3-------0---2---2---|
|-0-------0-----------------------1---------------2---2---|
|-----------------------------------------3-------0---0---|

Solo 1

Chords
  Am              Am/G            Fmaj7           F7      E  
  * . . . * . . . * . . . * . . . * . . . * . . . * . . . * . . .
|--------------------___--------------------------------------0---|----|
|----0h1------0------0h1------0-------1-------0-------1-----------|----|
|-2-----2---2--2-2------2---2--22---2---2---2--222--2---2---2---2-|-0/-|
|---2------2-2--2---2----2------------------------1-------2-------|-/0-|
|---------0-------------------------------------------------------|----|
|-----------------3-------3-------1-------1-----------------------|-..-|

Solo
 
|-------------------------------------------------------------|
|-------------------------------------------------------------|
|-------------------------------------------------------------|
|-7----11r9-7-7-7-7vvv---10r9-7-9-10-12p10-9-10-9hp---9-7-----|
|---------------------------------------------------------7v--|
|-------------------------------------------------------------|
 
|---------------------------------------------------------|
|-----------------------------------------___-------------|
|-7-b8-b9-9r7---7-5hp---4-5-4hp---5p4-5-7-9r7p5---7-5-7/9-|
|---------------------------------------------------------|
|---------------------------------------------------------|
|---------------------------------------------------------|

|------------------------------------___________-------___________-------|
|---------8---8-10-8/10---10/12---12-12h13p12p10-12-13-12h13p12p10-12-10-|
|-9/11-11----------------------------------------------------------------|
|------------------------------------------------------------------------|
|------------------------------------------------------------------------|
|------------------------------------------------------------------------|

|-----------------------------------------------------------------|
|-------------------x/--------------------------------------------|
|-9p7(\5)-7p5-7p5v--x/--5-7-8-8p7-8p7-8p7p5-7p5\4-5---4-2-4-0-2...|
|-----------------------------------------------------------------|
|-----------------------------------------------------------------|
|-----------------------------------------------------------------|

Enter second guitar
 
|-12r10p8-7-8-7h8p7----------------------------------------------------------|
|-------------------10-------------------------------------------------------|
|----------------------9-7----------------5-7-5-5-7b9---b9-b9-b9-b9-b9r7-5-7-|
|--------------------------10p9h10-5-7---------------------------------------|
|----------------------------------------------------------------------------|
|----------------------------------------------------------------------------|

|------------------------------------------------------------------------|
|------------------------------------------------------------------------|
|--7p5-5-5-5-5\4-4-4-4\2---2---5r4p2-4p2-4-4b-b5-b5-b5-b5-b5r4p2-5r4p2---|
|------------------------------------------------------------------------|
|------------------------------------------------------------------------|
|------------------------------------------------------------------------|
 
|-----------------------------------------------------|
|-_____---_____-----_____-------_____-------_____-----|
|-5r4p2-4-5r4p2-4-5-4b5r4-2-4-5-4b5r4-2-4-5-4r5r4p2---|
|-----------------------------------------------------|
|-----------------------------------------------------|
|-----------------------------------------------------|

Half Chorus

(drive chords)
G D   D Em   G D   x Em

  *    .    .    .  *   . . . *      *     .     .     .     *     .      
|--------------------------------| |------------------------------------|
|-10---10---10-8-7---------------| |------------------------------10-12-|
|-11---11---11-7----7---2-4-2-4--| |-------------------------11-12------|
|-12---12---12---7--7---4-2-1----| |----------------11-13-14------------|
|--------------------------------| |----------12-14---------------------|
|-----------------------------0--| |-12-14-15---------------------------|

Solo 2

   C              G           F                   C
   *              *           *                   *
|-----------------------------12b13---b13__r12p10-12v---10-|
|--12b13v__r12p10-12vvv--10--------------------------------|
|----------------------------------------------------------|
|----------------------------------------------------------|
|----------------------------------------------------------|
|----------------------------------------------------------|
|Fanfare guitar arrangements (right)
|---------1----------------------------1----------0--------|
|--1------1-------0-----------1--------1----------1--------|
|--0------0-------0-----------2--------2----------0--------|
|--2-----(2)------0-----------3--------3----------2--------|
|-----------------------------3----------------------------|
|----------------------------------------------------------|
|left 2gts (not alligned, don't rely on this staff's spacing)
|--8v-----8-------7----7\5----4h5--------------------------|
|--8v----r8-------8----8\6\1--5h6------------5h6p5---------|
|--9v----r9-------7----7\5\2--5v-------------5________\3---|
|-(10)------------5----------------------------------------|
|-----------------------------------------------------8----|
|--------------------------------------------------8v---8--|

  Bb                                         Esus4         E
  *                *                         *             *  
|-----------------------------------------------------------------------------|
|-18b20v--17-15------------17b18--r17p15h17--18-17h18hp-15-17v-17h18ph..bhp..-|
|---------------17-15vv-------------------------------------------------------|
|-----------------------------------------------------------------------------|
|-----------------------------------------------------------------------------|
|-----------------------------------------------------------------------------|
|
|-------------------------(1)--------------------------------------|
|--------------------------3----------------(0)--------------------|
|-3------3-----------3-----3-----------------2----2--------1-------|
|-3------3-----------3-----3-----------------2----2--------2-------|
|-1------0------------------------------------------------(2)------|
|--------------------3---------------------------------------.....-|
|                                                    ___________
|-6v-----6v----------6v----6-----------------5-h5---p5p4h5p4h5p4-4-|
|-3v-----3v----------3b----3-----------------5--5------------------|
|-3v-----3v----------3v----3-----------------2-------------------1-|
|-3v-----3v----------3v------------------------------------------2-|
|-13-----12----------10--------------------------------------------|
|------------------------------------------------------------------|

+If you listen very carefully, a high gain 'n' high treble guitar is playing some high
pitched soft chords, they have a long sustain, I recommend that this guitar plays the
normal chords. When changing chord, slide.


Bridge 1

   Am
My Goddess Hear
 
   G
My Darkest Fear

  C     G   Am
I speak too late

D         Am
 It's for evermore
D         A
   That I wait


Ending (Same shape as chorus)

G    D
Dear Friend

  D  Em               G  D   D  Em  G  D       D  Em  G D  D E.....
|-2--0--------------------------0---3----3p2------0-----------------------0--|
|-3--0-----0--0----------3---3--0---3--3----3-----0--------3------------0----|
|-2--0-----0--0-------0--2------0---0--------2-2--0---0----2----------1------|
|-0--2-----4--4p2-0---0--0---0--2---0--0-------0--2---0-0--0--------2--------|
|----2--------------2-2-------------------------------5------4\---2----------|
|----0----------------3--2----------------------------3-2-------0------------|

Woody (hitting the wall of sound, hence many mistakes)
pages 1